  0
SECTION
  2
HEADER
  9
$ACADVER
  1
AC1015
  9
$ACADMAINTVER
 70
     6
  9
$DWGCODEPAGE
  3
ANSI_1254
  9
$INSBASE
 10
0.0
 20
0.0
 30
0.0
  9
$EXTMIN
 10
0.0
 20
0.0
 30
0.0
  9
$EXTMAX
 10
279.4
 20
215.9
 30
0.0
  9
$LIMMIN
 10
0.0
 20
0.0
  9
$LIMMAX
 10
279.4
 20
215.9
  9
$ORTHOMODE
 70
     0
  9
$REGENMODE
 70
     1
  9
$FILLMODE
 70
     1
  9
$QTEXTMODE
 70
     0
  9
$MIRRTEXT
 70
     1
  9
$LTSCALE
 40
1.0
  9
$ATTMODE
 70
     1
  9
$TEXTSIZE
 40
3.5
  9
$TRACEWID
 40
1.0
  9
$TEXTSTYLE
  7
Standard
  9
$CLAYER
  8
0
  9
$CELTYPE
  6
ByLayer
  9
$CECOLOR
 62
   256
  9
$CELTSCALE
 40
1.0
  9
$DISPSILH
 70
     0
  9
$DIMSCALE
 40
1.0
  9
$DIMASZ
 40
3.5
  9
$DIMEXO
 40
1.0
  9
$DIMDLI
 40
3.75
  9
$DIMRND
 40
0.0
  9
$DIMDLE
 40
0.0
  9
$DIMEXE
 40
1.0
  9
$DIMTP
 40
0.0
  9
$DIMTM
 40
0.0
  9
$DIMTXT
 40
3.5
  9
$DIMCEN
 40
2.5
  9
$DIMTSZ
 40
0.0
  9
$DIMTOL
 70
     0
  9
$DIMLIM
 70
     0
  9
$DIMTIH
 70
     1
  9
$DIMTOH
 70
     1
  9
$DIMSE1
 70
     0
  9
$DIMSE2
 70
     0
  9
$DIMTAD
 70
     1
  9
$DIMZIN
 70
     0
  9
$DIMBLK
  1

  9
$DIMASO
 70
     1
  9
$DIMSHO
 70
     1
  9
$DIMPOST
  1

  9
$DIMAPOST
  1

  9
$DIMALT
 70
     0
  9
$DIMALTD
 70
     3
  9
$DIMALTF
 40
0.0393700787
  9
$DIMLFAC
 40
1.0
  9
$DIMTOFL
 70
     1
  9
$DIMTVP
 40
0.0
  9
$DIMTIX
 70
     0
  9
$DIMSOXD
 70
     0
  9
$DIMSAH
 70
     0
  9
$DIMBLK1
  1

  9
$DIMBLK2
  1

  9
$DIMSTYLE
  2
ISO-25
  9
$DIMCLRD
 70
     0
  9
$DIMCLRE
 70
     0
  9
$DIMCLRT
 70
     0
  9
$DIMTFAC
 40
1.0
  9
$DIMGAP
 40
1.524
  9
$DIMJUST
 70
     0
  9
$DIMSD1
 70
     0
  9
$DIMSD2
 70
     0
  9
$DIMTOLJ
 70
     0
  9
$DIMTZIN
 70
     0
  9
$DIMALTZ
 70
     0
  9
$DIMALTTZ
 70
     0
  9
$DIMUPT
 70
     0
  9
$DIMDEC
 70
     2
  9
$DIMTDEC
 70
     2
  9
$DIMALTU
 70
     2
  9
$DIMALTTD
 70
     3
  9
$DIMTXSTY
  7
Standard
  9
$DIMAUNIT
 70
     0
  9
$DIMADEC
 70
     2
  9
$DIMALTRND
 40
0.0
  9
$DIMAZIN
 70
     0
  9
$DIMDSEP
 70
    44
  9
$DIMATFIT
 70
     3
  9
$DIMFRAC
 70
     0
  9
$DIMLDRBLK
  1

  9
$DIMLUNIT
 70
     2
  9
$DIMLWD
 70
    -2
  9
$DIMLWE
 70
    -2
  9
$DIMTMOVE
 70
     0
  9
$LUNITS
 70
     2
  9
$LUPREC
 70
     2
  9
$SKETCHINC
 40
1.0
  9
$FILLETRAD
 40
10.0
  9
$AUNITS
 70
     0
  9
$AUPREC
 70
     2
  9
$MENU
  1
.
  9
$ELEVATION
 40
0.0
  9
$PELEVATION
 40
0.0
  9
$THICKNESS
 40
0.0
  9
$LIMCHECK
 70
     0
  9
$CHAMFERA
 40
0.0
  9
$CHAMFERB
 40
0.0
  9
$CHAMFERC
 40
0.0
  9
$CHAMFERD
 40
0.0
  9
$SKPOLY
 70
     0
  9
$TDCREATE
 40
2459741.607886134
  9
$TDUCREATE
 40
2459741.482886134
  9
$TDUPDATE
 40
2459741.607886308
  9
$TDUUPDATE
 40
2459741.482886308
  9
$TDINDWG
 40
0.0000000116
  9
$TDUSRTIMER
 40
0.0000000116
  9
$USRTIMER
 70
     1
  9
$ANGBASE
 50
0.0
  9
$ANGDIR
 70
     0
  9
$PDMODE
 70
     0
  9
$PDSIZE
 40
-1.0
  9
$PLINEWID
 40
0.0
  9
$SPLFRAME
 70
     0
  9
$SPLINETYPE
 70
     6
  9
$SPLINESEGS
 70
     8
  9
$HANDSEED
  5
104
  9
$SURFTAB1
 70
     6
  9
$SURFTAB2
 70
     6
  9
$SURFTYPE
 70
     6
  9
$SURFU
 70
     6
  9
$SURFV
 70
     6
  9
$UCSBASE
  2

  9
$UCSNAME
  2

  9
$UCSORG
 10
0.0
 20
0.0
 30
0.0
  9
$UCSXDIR
 10
1.0
 20
0.0
 30
0.0
  9
$UCSYDIR
 10
0.0
 20
1.0
 30
0.0
  9
$UCSORTHOREF
  2

  9
$UCSORTHOVIEW
 70
     0
  9
$UCSORGTOP
 10
0.0
 20
0.0
 30
0.0
  9
$UCSORGBOTTOM
 10
0.0
 20
0.0
 30
0.0
  9
$UCSORGLEFT
 10
0.0
 20
0.0
 30
0.0
  9
$UCSORGRIGHT
 10
0.0
 20
0.0
 30
0.0
  9
$UCSORGFRONT
 10
0.0
 20
0.0
 30
0.0
  9
$UCSORGBACK
 10
0.0
 20
0.0
 30
0.0
  9
$PUCSBASE
  2

  9
$PUCSNAME
  2

  9
$PUCSORG
 10
0.0
 20
0.0
 30
0.0
  9
$PUCSXDIR
 10
1.0
 20
0.0
 30
0.0
  9
$PUCSYDIR
 10
0.0
 20
1.0
 30
0.0
  9
$PUCSORTHOREF
  2

  9
$PUCSORTHOVIEW
 70
     0
  9
$PUCSORGTOP
 10
0.0
 20
0.0
 30
0.0
  9
$PUCSORGBOTTOM
 10
0.0
 20
0.0
 30
0.0
  9
$PUCSORGLEFT
 10
0.0
 20
0.0
 30
0.0
  9
$PUCSORGRIGHT
 10
0.0
 20
0.0
 30
0.0
  9
$PUCSORGFRONT
 10
0.0
 20
0.0
 30
0.0
  9
$PUCSORGBACK
 10
0.0
 20
0.0
 30
0.0
  9
$USERI1
 70
     0
  9
$USERI2
 70
     0
  9
$USERI3
 70
     0
  9
$USERI4
 70
     0
  9
$USERI5
 70
     0
  9
$USERR1
 40
0.0
  9
$USERR2
 40
0.0
  9
$USERR3
 40
0.0
  9
$USERR4
 40
0.0
  9
$USERR5
 40
0.0
  9
$WORLDVIEW
 70
     1
  9
$SHADEDGE
 70
     3
  9
$SHADEDIF
 70
    70
  9
$TILEMODE
 70
     1
  9
$MAXACTVP
 70
    64
  9
$PINSBASE
 10
0.0
 20
0.0
 30
0.0
  9
$PLIMCHECK
 70
     0
  9
$PEXTMIN
 10
1.0000000000E+20
 20
1.0000000000E+20
 30
1.0000000000E+20
  9
$PEXTMAX
 10
-1.0000000000E+20
 20
-1.0000000000E+20
 30
-1.0000000000E+20
  9
$PLIMMIN
 10
0.0
 20
0.0
  9
$PLIMMAX
 10
420.0
 20
297.0
  9
$UNITMODE
 70
     0
  9
$VISRETAIN
 70
     1
  9
$PLINEGEN
 70
     0
  9
$PSLTSCALE
 70
     1
  9
$TREEDEPTH
 70
  3020
  9
$CMLSTYLE
  2
Standard
  9
$CMLJUST
 70
     0
  9
$CMLSCALE
 40
20.0
  9
$PROXYGRAPHICS
 70
     1
  9
$MEASUREMENT
 70
     1
  9
$CELWEIGHT
370
    -1
  9
$ENDCAPS
280
     0
  9
$JOINSTYLE
280
     0
  9
$LWDISPLAY
290
     1
  9
$INSUNITS
 70
     4
  9
$HYPERLINKBASE
  1

  9
$STYLESHEET
  1

  9
$XEDIT
290
     1
  9
$CEPSNTYPE
380
     0
  9
$PSTYLEMODE
290
     1
  9
$FINGERPRINTGUID
  2
{564efc07-d876-4ff6-9aed-7c0af256a8de}
  9
$VERSIONGUID
  2
{FAEB1C32-E019-11D5-929B-00C0DF256EC4}
  9
$EXTNAMES
290
     1
  9
$PSVPSCALE
 40
0.0
  9
$OLESTARTUP
290
     0
  0
ENDSEC
  0
SECTION
  2
CLASSES
  0
CLASS
  1
ACDBDICTIONARYWDFLT
  2
AcDbDictionaryWithDefault
  3
ObjectDBX Classes
 90
        0
280
     0
281
     0
  0
CLASS
  1
VISUALSTYLE
  2
AcDbVisualStyle
  3
ObjectDBX Classes
 90
     4095
280
     0
281
     0
  0
CLASS
  1
MATERIAL
  2
AcDbMaterial
  3
ObjectDBX Classes
 90
     1153
280
     0
281
     0
  0
CLASS
  1
SCALE
  2
AcDbScale
  3
ObjectDBX Classes
 90
     1153
280
     0
281
     0
  0
CLASS
  1
TABLESTYLE
  2
AcDbTableStyle
  3
ObjectDBX Classes
 90
     4095
280
     0
281
     0
  0
CLASS
  1
MLEADERSTYLE
  2
AcDbMLeaderStyle
  3
ACDB_MLEADERSTYLE_CLASS
 90
     4095
280
     0
281
     0
  0
CLASS
  1
SUN
  2
AcDbSun
  3
SCENEOE
 90
     1153
280
     0
281
     0
  0
CLASS
  1
ACDBPLACEHOLDER
  2
AcDbPlaceHolder
  3
ObjectDBX Classes
 90
        0
280
     0
281
     0
  0
CLASS
  1
LAYOUT
  2
AcDbLayout
  3
ObjectDBX Classes
 90
        0
280
     0
281
     0
  0
ENDSEC
  0
SECTION
  2
TABLES
  0
TABLE
  2
VPORT
  5
8
330
0
100
AcDbSymbolTable
 70
     1
  0
VPORT
  5
29
330
8
100
AcDbSymbolTableRecord
100
AcDbViewportTableRecord
  2
*Active
 70
     0
 10
0.0
 20
0.0
 11
1.0
 21
1.0
 12
139.7
 22
107.95
 13
0.0
 23
0.0
 14
10.0
 24
10.0
 15
10.0
 25
10.0
 16
0.0
 26
0.0
 36
1.0
 17
0.0
 27
0.0
 37
0.0
 40
215.9
 41
1.2941176471
 42
50.0
 43
0.0
 44
0.0
 50
0.0
 51
0.0
 71
     0
 72
  2000
 73
     1
 74
     3
 75
     0
 76
     0
 77
     0
 78
     0
281
     0
 65
     1
110
0.0
120
0.0
130
0.0
111
1.0
121
0.0
131
0.0
112
0.0
122
1.0
132
0.0
 79
     0
146
0.0
  0
ENDTAB
  0
TABLE
  2
LTYPE
  5
5
330
0
100
AcDbSymbolTable
 70
     6
  0
LTYPE
  5
14
330
5
100
AcDbSymbolTableRecord
100
AcDbLinetypeTableRecord
  2
ByBlock
 70
     0
  3

 72
    65
 73
     0
 40
0.0
  0
LTYPE
  5
15
330
5
100
AcDbSymbolTableRecord
100
AcDbLinetypeTableRecord
  2
ByLayer
 70
     0
  3

 72
    65
 73
     0
 40
0.0
  0
LTYPE
  5
16
330
5
100
AcDbSymbolTableRecord
100
AcDbLinetypeTableRecord
  2
Continuous
 70
     0
  3
Solid line
 72
    65
 73
     0
 40
0.0
  0
LTYPE
  5
6E
330
5
100
AcDbSymbolTableRecord
100
AcDbLinetypeTableRecord
  2
HIDDEN
 70
     0
  3
Hidden __ __ __ __ __ __ __ __ __ __ __ __ __ __
 72
    65
 73
     2
 40
1.905
 49
1.27
 74
     0
 49
-0.635
 74
     0
  0
LTYPE
  5
6F
330
5
100
AcDbSymbolTableRecord
100
AcDbLinetypeTableRecord
  2
PHANTOM
 70
     0
  3
Phantom ______  __  __  ______  __  __  ______
 72
    65
 73
     6
 40
12.7
 49
6.35
 74
     0
 49
-1.27
 74
     0
 49
1.27
 74
     0
 49
-1.27
 74
     0
 49
1.27
 74
     0
 49
-1.27
 74
     0
  0
LTYPE
  5
70
330
5
100
AcDbSymbolTableRecord
100
AcDbLinetypeTableRecord
  2
CENTER
 70
     0
  3
Center ____ _ ____ _ ____ _ ____ _ ____ _ ____
 72
    65
 73
     4
 40
10.16
 49
6.35
 74
     0
 49
-1.27
 74
     0
 49
1.27
 74
     0
 49
-1.27
 74
     0
  0
LTYPE
  5
71
330
5
100
AcDbSymbolTableRecord
100
AcDbLinetypeTableRecord
  2
CENTERX2
 70
     0
  3
Center (2x) ________  __  ________  __  _____
 72
    65
 73
     4
 40
20.32
 49
12.7
 74
     0
 49
-2.54
 74
     0
 49
2.54
 74
     0
 49
-2.54
 74
     0
  0
LTYPE
  5
72
330
5
100
AcDbSymbolTableRecord
100
AcDbLinetypeTableRecord
  2
DOT2
 70
     0
  3
Dot (.5x) ........................................
 72
    65
 73
     2
 40
0.635
 49
0.0
 74
     0
 49
-0.635
 74
     0
  0
ENDTAB
  0
TABLE
  2
LAYER
  5
2
330
0
100
AcDbSymbolTable
 70
    17
  0
LAYER
  5
10
330
2
100
AcDbSymbolTableRecord
100
AcDbLayerTableRecord
  2
0
 70
     0
 62
     7
  6
Continuous
370
    -3
390
F
  0
LAYER
  5
73
330
2
100
AcDbSymbolTableRecord
100
AcDbLayerTableRecord
  2
FORMAT
 70
     0
 62
     7
  6
Continuous
370
    -3
390
F
  0
LAYER
  5
74
330
2
100
AcDbSymbolTableRecord
100
AcDbLayerTableRecord
  2
YARDIMCI_GEOMETRI
 70
     0
 62
    -6
  6
Continuous
290
     0
370
    -3
390
F
  0
LAYER
  5
75
330
2
100
AcDbSymbolTableRecord
100
AcDbLayerTableRecord
  2
SAYFA_CERCEVESI
 70
     0
 62
     7
  6
Continuous
370
    25
390
F
  0
LAYER
  5
76
330
2
100
AcDbSymbolTableRecord
100
AcDbLayerTableRecord
  2
ANTET
 70
     0
 62
     7
  6
Continuous
370
    -3
390
F
  0
LAYER
  5
77
330
2
100
AcDbSymbolTableRecord
100
AcDbLayerTableRecord
  2
OLCU
 70
     0
 62
   150
  6
Continuous
370
    -3
390
F
  0
LAYER
  5
78
330
2
100
AcDbSymbolTableRecord
100
AcDbLayerTableRecord
  2
METIN
 70
     0
 62
    96
  6
Continuous
370
    -3
390
F
  0
LAYER
  5
79
330
2
100
AcDbSymbolTableRecord
100
AcDbLayerTableRecord
  2
BALON
 70
     0
 62
     5
  6
Continuous
370
    -3
390
F
  0
LAYER
  5
7A
330
2
100
AcDbSymbolTableRecord
100
AcDbLayerTableRecord
  2
VURGU
 70
     0
 62
     7
  6
Continuous
370
    -3
390
F
  0
LAYER
  5
7B
330
2
100
AcDbSymbolTableRecord
100
AcDbLayerTableRecord
  2
SILIK
 70
     0
 62
     7
  6
Continuous
370
    -3
390
F
  0
LAYER
  5
7C
330
2
100
AcDbSymbolTableRecord
100
AcDbLayerTableRecord
  2
MODEL
 70
     0
 62
     7
  6
Continuous
370
    -3
390
F
  0
LAYER
  5
7D
330
2
100
AcDbSymbolTableRecord
100
AcDbLayerTableRecord
  2
DETAYLANDıRMA
 70
     0
 62
   190
  6
Continuous
370
    -3
390
F
  0
LAYER
  5
7E
330
2
100
AcDbSymbolTableRecord
100
AcDbLayerTableRecord
  2
TOLERANS
 70
     0
 62
   230
  6
Continuous
370
    -3
390
F
  0
LAYER
  5
7F
330
2
100
AcDbSymbolTableRecord
100
AcDbLayerTableRecord
  2
MERKEZ_CIZGILERI
 70
     0
 62
    30
  6
Continuous
370
    -3
390
F
  0
LAYER
  5
80
330
2
100
AcDbSymbolTableRecord
100
AcDbLayerTableRecord
  2
KESIT-DETAY_CIZGILERI
 70
     0
 62
     7
  6
Continuous
370
    -3
390
F
  0
LAYER
  5
81
330
2
100
AcDbSymbolTableRecord
100
AcDbLayerTableRecord
  2
\U+041E\U+0421\U+0415\U+0412\U+042B\U+0415
 70
     0
 62
     7
  6
Continuous
370
    -3
390
F
  0
LAYER
  5
82
330
2
100
AcDbSymbolTableRecord
100
AcDbLayerTableRecord
  2
\U+0412\U+041E\U+0414\U+042F\U+041D\U+042B\U+0415_\U+0417\U+041D\U+0410\U+041A\U+0418
 70
     0
 62
    11
  6
Continuous
370
    -3
390
F
  0
ENDTAB
  0
TABLE
  2
STYLE
  5
3
330
0
100
AcDbSymbolTable
 70
     1
  0
STYLE
  5
11
330
3
100
AcDbSymbolTableRecord
100
AcDbTextStyleTableRecord
  2
Standard
 70
     0
 40
0.0
 41
1.0
 50
0.0
 71
     0
 42
3.5
  3
txt
  4

  0
ENDTAB
  0
TABLE
  2
VIEW
  5
6
330
0
100
AcDbSymbolTable
 70
     0
  0
ENDTAB
  0
TABLE
  2
UCS
  5
7
330
0
100
AcDbSymbolTable
 70
     0
  0
ENDTAB
  0
TABLE
  2
APPID
  5
9
330
0
100
AcDbSymbolTable
 70
     1
  0
APPID
  5
12
330
9
100
AcDbSymbolTableRecord
100
AcDbRegAppTableRecord
  2
ACAD
 70
     0
  0
ENDTAB
  0
TABLE
  2
DIMSTYLE
  5
A
330
0
100
AcDbSymbolTable
 70
     1
100
AcDbDimStyleTable
  0
DIMSTYLE
105
27
330
A
100
AcDbSymbolTableRecord
100
AcDbDimStyleTableRecord
  2
ISO-25
 70
     0
 41
2.5
 42
0.625
 43
3.75
 44
1.25
 73
     0
 74
     0
 77
     1
 78
     8
140
2.5
141
2.5
143
0.0393700787
147
0.625
171
     3
172
     1
178
     0
271
     2
272
     2
274
     3
278
    44
283
     0
284
     8
340
11
  0
ENDTAB
  0
TABLE
  2
BLOCK_RECORD
  5
1
330
0
100
AcDbSymbolTable
 70
     5
  0
BLOCK_RECORD
  5
1F
330
1
100
AcDbSymbolTableRecord
100
AcDbBlockTableRecord
  2
*Model_Space
340
22
  0
BLOCK_RECORD
  5
1B
330
1
100
AcDbSymbolTableRecord
100
AcDbBlockTableRecord
  2
*Paper_Space
340
1E
  0
BLOCK_RECORD
  5
23
330
1
100
AcDbSymbolTableRecord
100
AcDbBlockTableRecord
  2
*Paper_Space0
340
26
  0
BLOCK_RECORD
  5
8C
330
1
100
AcDbSymbolTableRecord
100
AcDbBlockTableRecord
  2
SW_CENTERMARKSYMBOL_0
340
0
102
{BLKREFS
331
97
102
}
  0
BLOCK_RECORD
  5
AA
330
1
100
AcDbSymbolTableRecord
100
AcDbBlockTableRecord
  2
SW_CENTERMARKSYMBOL_1
340
0
102
{BLKREFS
331
B5
102
}
  0
BLOCK_RECORD
  5
DA
330
1
100
AcDbSymbolTableRecord
100
AcDbBlockTableRecord
  2
SW_CENTERMARKSYMBOL_2
340
0
102
{BLKREFS
331
E5
102
}
  0
BLOCK_RECORD
  5
E6
330
1
100
AcDbSymbolTableRecord
100
AcDbBlockTableRecord
  2
SW_CENTERMARKSYMBOL_3
340
0
102
{BLKREFS
331
F1
102
}
  0
ENDTAB
  0
ENDSEC
  0
SECTION
  2
BLOCKS
  0
BLOCK
  5
20
330
1F
100
AcDbEntity
  8
0
100
AcDbBlockBegin
  2
*Model_Space
 70
     0
 10
0.0
 20
0.0
 30
0.0
  3
*Model_Space
  1

  0
ENDBLK
  5
21
330
1F
100
AcDbEntity
  8
0
100
AcDbBlockEnd
  0
BLOCK
  5
1C
330
1B
100
AcDbEntity
 67
     1
  8
0
100
AcDbBlockBegin
  2
*Paper_Space
 70
     0
 10
0.0
 20
0.0
 30
0.0
  3
*Paper_Space
  1

  0
ENDBLK
  5
1D
330
1B
100
AcDbEntity
 67
     1
  8
0
100
AcDbBlockEnd
  0
BLOCK
  5
24
330
23
100
AcDbEntity
  8
0
100
AcDbBlockBegin
  2
*Paper_Space0
 70
     0
 10
0.0
 20
0.0
 30
0.0
  3
*Paper_Space0
  1

  0
ENDBLK
  5
25
330
23
100
AcDbEntity
  8
0
100
AcDbBlockEnd
  0
BLOCK
  5
8D
330
8C
100
AcDbEntity
  8
0
100
AcDbBlockBegin
  2
SW_CENTERMARKSYMBOL_0
 70
     0
 10
0.0
 20
0.0
 30
0.0
  3
SW_CENTERMARKSYMBOL_0
  1

  0
LINE
  5
8F
330
8C
100
AcDbEntity
  8
FORMAT
 62
     0
100
AcDbLine
 10
0.0
 20
0.0
 30
0.0
 11
0.0
 21
2.5
 31
0.0
  0
LINE
  5
90
330
8C
100
AcDbEntity
  8
FORMAT
 62
     0
100
AcDbLine
 10
0.0
 20
0.0
 30
0.0
 11
-2.5
 21
0.0
 31
0.0
  0
LINE
  5
91
330
8C
100
AcDbEntity
  8
FORMAT
 62
     0
100
AcDbLine
 10
0.0
 20
0.0
 30
0.0
 11
0.0
 21
-2.5
 31
0.0
  0
LINE
  5
92
330
8C
100
AcDbEntity
  8
FORMAT
 62
     0
100
AcDbLine
 10
0.0
 20
0.0
 30
0.0
 11
2.5
 21
0.0
 31
0.0
  0
LINE
  5
93
330
8C
100
AcDbEntity
  8
FORMAT
 62
     0
100
AcDbLine
 10
0.0
 20
5.0
 30
0.0
 11
0.0
 21
42.5
 31
0.0
  0
LINE
  5
94
330
8C
100
AcDbEntity
  8
FORMAT
 62
     0
100
AcDbLine
 10
-5.0
 20
0.0
 30
0.0
 11
-42.5
 21
0.0
 31
0.0
  0
LINE
  5
95
330
8C
100
AcDbEntity
  8
FORMAT
 62
     0
100
AcDbLine
 10
0.0
 20
-5.0
 30
0.0
 11
0.0
 21
-42.5
 31
0.0
  0
LINE
  5
96
330
8C
100
AcDbEntity
  8
FORMAT
 62
     0
100
AcDbLine
 10
5.0
 20
0.0
 30
0.0
 11
42.5
 21
0.0
 31
0.0
  0
ENDBLK
  5
8E
330
8C
100
AcDbEntity
  8
0
100
AcDbBlockEnd
  0
BLOCK
  5
AB
330
AA
100
AcDbEntity
  8
0
100
AcDbBlockBegin
  2
SW_CENTERMARKSYMBOL_1
 70
     0
 10
0.0
 20
0.0
 30
0.0
  3
SW_CENTERMARKSYMBOL_1
  1

  0
LINE
  5
AD
330
AA
100
AcDbEntity
  8
FORMAT
 62
     0
100
AcDbLine
 10
0.0
 20
0.0
 30
0.0
 11
0.0
 21
2.5
 31
0.0
  0
LINE
  5
AE
330
AA
100
AcDbEntity
  8
FORMAT
 62
     0
100
AcDbLine
 10
0.0
 20
0.0
 30
0.0
 11
-2.5
 21
0.0
 31
0.0
  0
LINE
  5
AF
330
AA
100
AcDbEntity
  8
FORMAT
 62
     0
100
AcDbLine
 10
0.0
 20
0.0
 30
0.0
 11
0.0
 21
-2.5
 31
0.0
  0
LINE
  5
B0
330
AA
100
AcDbEntity
  8
FORMAT
 62
     0
100
AcDbLine
 10
0.0
 20
0.0
 30
0.0
 11
2.5
 21
0.0
 31
0.0
  0
LINE
  5
B1
330
AA
100
AcDbEntity
  8
FORMAT
 62
     0
100
AcDbLine
 10
0.0
 20
5.0
 30
0.0
 11
0.0
 21
34.0
 31
0.0
  0
LINE
  5
B2
330
AA
100
AcDbEntity
  8
FORMAT
 62
     0
100
AcDbLine
 10
-5.0
 20
0.0
 30
0.0
 11
-34.0
 21
0.0
 31
0.0
  0
LINE
  5
B3
330
AA
100
AcDbEntity
  8
FORMAT
 62
     0
100
AcDbLine
 10
0.0
 20
-5.0
 30
0.0
 11
0.0
 21
-34.0
 31
0.0
  0
LINE
  5
B4
330
AA
100
AcDbEntity
  8
FORMAT
 62
     0
100
AcDbLine
 10
5.0
 20
0.0
 30
0.0
 11
34.0
 21
0.0
 31
0.0
  0
ENDBLK
  5
AC
330
AA
100
AcDbEntity
  8
0
100
AcDbBlockEnd
  0
BLOCK
  5
DB
330
DA
100
AcDbEntity
  8
0
100
AcDbBlockBegin
  2
SW_CENTERMARKSYMBOL_2
 70
     0
 10
0.0
 20
0.0
 30
0.0
  3
SW_CENTERMARKSYMBOL_2
  1

  0
LINE
  5
DD
330
DA
100
AcDbEntity
  8
FORMAT
 62
     0
100
AcDbLine
 10
0.0
 20
0.0
 30
0.0
 11
0.0
 21
2.5
 31
0.0
  0
LINE
  5
DE
330
DA
100
AcDbEntity
  8
FORMAT
 62
     0
100
AcDbLine
 10
0.0
 20
0.0
 30
0.0
 11
-2.5
 21
0.0
 31
0.0
  0
LINE
  5
DF
330
DA
100
AcDbEntity
  8
FORMAT
 62
     0
100
AcDbLine
 10
0.0
 20
0.0
 30
0.0
 11
0.0
 21
-2.5
 31
0.0
  0
LINE
  5
E0
330
DA
100
AcDbEntity
  8
FORMAT
 62
     0
100
AcDbLine
 10
0.0
 20
0.0
 30
0.0
 11
2.5
 21
0.0
 31
0.0
  0
LINE
  5
E1
330
DA
100
AcDbEntity
  8
FORMAT
 62
     0
100
AcDbLine
 10
0.0
 20
5.0
 30
0.0
 11
0.0
 21
9.5
 31
0.0
  0
LINE
  5
E2
330
DA
100
AcDbEntity
  8
FORMAT
 62
     0
100
AcDbLine
 10
-5.0
 20
0.0
 30
0.0
 11
-9.5
 21
0.0
 31
0.0
  0
LINE
  5
E3
330
DA
100
AcDbEntity
  8
FORMAT
 62
     0
100
AcDbLine
 10
0.0
 20
-5.0
 30
0.0
 11
0.0
 21
-9.5
 31
0.0
  0
LINE
  5
E4
330
DA
100
AcDbEntity
  8
FORMAT
 62
     0
100
AcDbLine
 10
5.0
 20
0.0
 30
0.0
 11
9.5
 21
0.0
 31
0.0
  0
ENDBLK
  5
DC
330
DA
100
AcDbEntity
  8
0
100
AcDbBlockEnd
  0
BLOCK
  5
E7
330
E6
100
AcDbEntity
  8
0
100
AcDbBlockBegin
  2
SW_CENTERMARKSYMBOL_3
 70
     0
 10
0.0
 20
0.0
 30
0.0
  3
SW_CENTERMARKSYMBOL_3
  1

  0
LINE
  5
E9
330
E6
100
AcDbEntity
  8
FORMAT
 62
     0
100
AcDbLine
 10
0.0
 20
0.0
 30
0.0
 11
0.0
 21
2.5
 31
0.0
  0
LINE
  5
EA
330
E6
100
AcDbEntity
  8
FORMAT
 62
     0
100
AcDbLine
 10
0.0
 20
0.0
 30
0.0
 11
-2.5
 21
0.0
 31
0.0
  0
LINE
  5
EB
330
E6
100
AcDbEntity
  8
FORMAT
 62
     0
100
AcDbLine
 10
0.0
 20
0.0
 30
0.0
 11
0.0
 21
-2.5
 31
0.0
  0
LINE
  5
EC
330
E6
100
AcDbEntity
  8
FORMAT
 62
     0
100
AcDbLine
 10
0.0
 20
0.0
 30
0.0
 11
2.5
 21
0.0
 31
0.0
  0
LINE
  5
ED
330
E6
100
AcDbEntity
  8
FORMAT
 62
     0
100
AcDbLine
 10
0.0
 20
5.0
 30
0.0
 11
0.0
 21
9.5
 31
0.0
  0
LINE
  5
EE
330
E6
100
AcDbEntity
  8
FORMAT
 62
     0
100
AcDbLine
 10
-5.0
 20
0.0
 30
0.0
 11
-9.5
 21
0.0
 31
0.0
  0
LINE
  5
EF
330
E6
100
AcDbEntity
  8
FORMAT
 62
     0
100
AcDbLine
 10
0.0
 20
-5.0
 30
0.0
 11
0.0
 21
-9.5
 31
0.0
  0
LINE
  5
F0
330
E6
100
AcDbEntity
  8
FORMAT
 62
     0
100
AcDbLine
 10
5.0
 20
0.0
 30
0.0
 11
9.5
 21
0.0
 31
0.0
  0
ENDBLK
  5
E8
330
E6
100
AcDbEntity
  8
0
100
AcDbBlockEnd
  0
ENDSEC
  0
SECTION
  2
ENTITIES
  0
LINE
  5
83
330
1F
100
AcDbEntity
  8
0
  6
Continuous
 62
     7
370
    25
100
AcDbLine
 10
121.3295369748
 20
150.9183450867
 30
0.0
 11
121.3295369748
 21
190.0314365546
 31
0.0
  0
LINE
  5
84
330
1F
100
AcDbEntity
  8
0
  6
Continuous
 62
     7
370
    25
100
AcDbLine
 10
107.3295369748
 20
190.0314365546
 30
0.0
 11
107.3295369748
 21
150.9154368227
 31
0.0
  0
LINE
  5
85
330
1F
100
AcDbEntity
  8
0
  6
Continuous
 62
     7
370
    25
100
AcDbLine
 10
138.9912739715
 20
80.0314365546
 30
0.0
 11
227.3295369748
 21
80.0314365546
 31
0.0
  0
LINE
  5
86
330
1F
100
AcDbEntity
  8
0
  6
Continuous
 62
     7
370
    25
100
AcDbLine
 10
227.3295369748
 20
143.0314365546
 30
0.0
 11
139.0060786092
 21
143.0314365546
 31
0.0
  0
CIRCLE
  5
87
330
1F
100
AcDbEntity
  8
0
  6
Continuous
 62
     7
370
    25
100
AcDbCircle
 10
114.3295369748
 20
111.5314365546
 30
0.0
 40
31.5
  0
CIRCLE
  5
88
330
1F
100
AcDbEntity
  8
0
  6
Continuous
 62
     7
370
    25
100
AcDbCircle
 10
114.3295369748
 20
111.5314365546
 30
0.0
 40
40.0
  0
LINE
  5
89
330
1F
100
AcDbEntity
  8
0
  6
Continuous
 62
     7
370
    25
100
AcDbLine
 10
114.3295369748
 20
190.0314365546
 30
0.0
 11
107.3295369748
 21
190.0314365546
 31
0.0
  0
LINE
  5
8A
330
1F
100
AcDbEntity
  8
0
  6
Continuous
 62
     7
370
    25
100
AcDbLine
 10
121.3295369748
 20
190.0314365546
 30
0.0
 11
114.3295369748
 21
190.0314365546
 31
0.0
  0
LINE
  5
8B
330
1F
100
AcDbEntity
  8
0
  6
Continuous
 62
     7
370
    25
100
AcDbLine
 10
227.3295369748
 20
143.0314365546
 30
0.0
 11
227.3295369748
 21
80.0314365546
 31
0.0
  0
INSERT
  5
97
330
1F
100
AcDbEntity
  8
FORMAT
 62
     7
100
AcDbBlockReference
  2
SW_CENTERMARKSYMBOL_0
 10
114.3295369748
 20
111.5314365546
 30
0.0
  0
LINE
  5
98
330
1F
100
AcDbEntity
  8
0
  6
Continuous
 62
     7
370
    25
100
AcDbLine
 10
-153.5807922748
 20
151.5314365546
 30
0.0
 11
-154.5996272242
 21
151.5314365546
 31
0.0
  0
LINE
  5
99
330
1F
100
AcDbEntity
  8
0
  6
Continuous
 62
     7
370
    25
100
AcDbLine
 10
-5.5807922748
 20
151.5314365546
 30
0.0
 11
-139.5996272242
 21
151.5314365546
 31
0.0
  0
LINE
  5
9A
330
1F
100
AcDbEntity
  8
0
  6
Continuous
 62
     7
370
    25
100
AcDbLine
 10
9.4003727758
 20
151.5314365546
 30
0.0
 11
8.4003727758
 21
151.5314365546
 31
0.0
  0
LINE
  5
9B
330
1F
100
AcDbEntity
  8
0
  6
Continuous
 62
     7
370
    25
100
AcDbLine
 10
-154.5996272242
 20
71.5314365546
 30
0.0
 11
9.4003727758
 21
71.5314365546
 31
0.0
  0
LINE
  5
9C
330
1F
100
AcDbEntity
  8
0
  6
Continuous
 62
     7
370
    25
100
AcDbLine
 10
8.4003727758
 20
151.5314365546
 30
0.0
 11
8.4003727758
 21
190.0314365546
 31
0.0
  0
LINE
  5
9D
330
1F
100
AcDbEntity
  8
0
  6
Continuous
 62
     7
370
    25
100
AcDbLine
 10
-5.5996272242
 20
190.0314365546
 30
0.0
 11
-5.5996272242
 21
151.5281537948
 31
0.0
  0
LINE
  5
9E
330
1F
100
AcDbEntity
  8
0
  6
Continuous
 62
     7
370
    25
100
AcDbLine
 10
-139.5996272242
 20
151.5314365546
 30
0.0
 11
-139.5996272242
 21
190.0314365546
 31
0.0
  0
LINE
  5
9F
330
1F
100
AcDbEntity
  8
0
  6
Continuous
 62
     7
370
    25
100
AcDbLine
 10
-153.5996272242
 20
190.0314365546
 30
0.0
 11
-153.5996272242
 21
151.5281537948
 31
0.0
  0
CIRCLE
  5
A0
330
1F
100
AcDbEntity
  8
0
  6
Continuous
 62
     7
370
    25
100
AcDbCircle
 10
-72.5996272242
 20
111.5314365546
 30
0.0
 40
25.7
  0
CIRCLE
  5
A1
330
1F
100
AcDbEntity
  8
0
  6
Continuous
 62
     7
370
    25
100
AcDbCircle
 10
-72.5996272242
 20
111.5314365546
 30
0.0
 40
31.49999999999999
  0
LINE
  5
A2
330
1F
100
AcDbEntity
  8
0
  6
Continuous
 62
     7
370
    25
100
AcDbLine
 10
-154.5996272242
 20
111.5314365546
 30
0.0
 11
-154.5996272242
 21
151.5314365546
 31
0.0
  0
LINE
  5
A3
330
1F
100
AcDbEntity
  8
0
  6
Continuous
 62
     7
370
    25
100
AcDbLine
 10
-154.5996272242
 20
71.5314365546
 30
0.0
 11
-154.5996272242
 21
111.5314365546
 31
0.0
  0
LINE
  5
A4
330
1F
100
AcDbEntity
  8
0
  6
Continuous
 62
     7
370
    25
100
AcDbLine
 10
9.4003727758
 20
111.5314365546
 30
0.0
 11
9.4003727758
 21
151.5314365546
 31
0.0
  0
LINE
  5
A5
330
1F
100
AcDbEntity
  8
0
  6
Continuous
 62
     7
370
    25
100
AcDbLine
 10
9.4003727758
 20
71.5314365546
 30
0.0
 11
9.4003727758
 21
111.5314365546
 31
0.0
  0
SPLINE
  5
A6
330
1F
100
AcDbEntity
  8
0
  6
Continuous
 62
     7
370
    25
100
AcDbSpline
210
0.0
220
0.0
230
1.0
 70
     8
 71
     3
 72
    26
 73
    22
 74
     0
 42
0.00000001
 43
0.00000001
 40
0.0
 40
0.0
 40
0.0
 40
0.0
 40
0.05237446859372
 40
0.1062818262333993
 40
0.1586523694408183
 40
0.2125152249020937
 40
0.2653744664375876
 40
0.3197450442193736
 40
0.3729395875070164
 40
0.4277066401178663
 40
0.4803558846474332
 40
0.5345675023679165
 40
0.586639390978617
 40
0.6402072654921822
 40
0.6925696019047071
 40
0.7464103371621765
 40
0.7994741393026455
 40
0.8540722881615841
 40
0.907164681219299
 40
0.9618359470163517
 40
1.0
 40
1.0
 40
1.0
 40
1.0
 10
8.400372775822548
 20
151.5314365546218
 30
0.0
 10
8.38198918997711
 20
151.5281985230241
 30
0.0
 10
8.344683969917943
 20
151.5216276895466
 30
0.0
 10
8.044808324530944
 20
151.4701423632124
 30
0.0
 10
7.57113782431608
 20
151.3934345362915
 30
0.0
 10
6.926465023942924
 20
151.2978139541468
 30
0.0
 10
6.120083383500119
 20
151.1928224016686
 30
0.0
 10
5.18349880662633
 20
151.0912824882742
 30
0.0
 10
4.127070815033204
 20
151.0033890357464
 30
0.0
 10
3.002196499832577
 20
150.9410764300273
 30
0.0
 10
1.823876393092658
 20
150.9105514517316
 30
0.0
 10
0.6523683698362176
 20
150.9154926416188
 30
0.0
 10
-0.50356043443682
 20
150.9548327414256
 30
0.0
 10
-1.5930183020961
 20
151.0230842976272
 30
0.0
 10
-2.609747482254288
 20
151.1139496923699
 30
0.0
 10
-3.512005934338966
 20
151.2164457888626
 30
0.0
 10
-4.287584399813762
 20
151.3207983832287
 30
0.0
 10
-4.901282607878866
 20
151.4140664011769
 30
0.0
 10
-5.334130048423272
 20
151.4853501190427
 30
0.0
 10
-5.572847814378029
 20
151.5267321426337
 30
0.0
 10
-5.578477814749822
 20
151.5277364199349
 30
0.0
 10
-5.58079227475608
 20
151.5281492724208
 30
0.0
  0
SPLINE
  5
A7
330
1F
100
AcDbEntity
  8
0
  6
Continuous
 62
     7
370
    25
100
AcDbSpline
210
0.0
220
0.0
230
1.0
 70
     8
 71
     3
 72
    26
 73
    22
 74
     0
 42
0.00000001
 43
0.00000001
 40
0.0
 40
0.0
 40
0.0
 40
0.0
 40
0.05237446859372
 40
0.1062818262333994
 40
0.1586523694408184
 40
0.2125152249020938
 40
0.2653744664375877
 40
0.3197450442193736
 40
0.3729395875070164
 40
0.4277066401178663
 40
0.4803558846474332
 40
0.5345675023679165
 40
0.586639390978617
 40
0.6402072654921822
 40
0.692569601904707
 40
0.7464103371621765
 40
0.7994741393026453
 40
0.854072288161584
 40
0.9071646812192989
 40
0.9618359470163516
 40
1.0
 40
1.0
 40
1.0
 40
1.0
 10
-139.5996272241775
 20
151.5314365546218
 30
0.0
 10
-139.6180108100229
 20
151.5281985230241
 30
0.0
 10
-139.6553160300821
 20
151.5216276895466
 30
0.0
 10
-139.955191675469
 20
151.4701423632124
 30
0.0
 10
-140.4288621756839
 20
151.3934345362915
 30
0.0
 10
-141.0735349760571
 20
151.2978139541468
 30
0.0
 10
-141.8799166164999
 20
151.1928224016686
 30
0.0
 10
-142.8165011933737
 20
151.0912824882742
 30
0.0
 10
-143.8729291849668
 20
151.0033890357464
 30
0.0
 10
-144.9978035001675
 20
150.9410764300273
 30
0.0
 10
-146.1761236069073
 20
150.9105514517316
 30
0.0
 10
-147.3476316301638
 20
150.9154926416188
 30
0.0
 10
-148.5035604344368
 20
150.9548327414256
 30
0.0
 10
-149.5930183020961
 20
151.0230842976272
 30
0.0
 10
-150.6097474822543
 20
151.1139496923698
 30
0.0
 10
-151.512005934339
 20
151.2164457888626
 30
0.0
 10
-152.2875843998138
 20
151.3207983832287
 30
0.0
 10
-152.9012826078789
 20
151.4140664011769
 30
0.0
 10
-153.3341300484233
 20
151.4853501190427
 30
0.0
 10
-153.5728478143781
 20
151.5267321426337
 30
0.0
 10
-153.5784778147498
 20
151.5277364199349
 30
0.0
 10
-153.5807922747561
 20
151.5281492724208
 30
0.0
  0
LINE
  5
A8
330
1F
100
AcDbEntity
  8
0
  6
Continuous
 62
     7
370
    25
100
AcDbLine
 10
8.4003727758
 20
190.0314365546
 30
0.0
 11
-5.5996272242
 21
190.0314365546
 31
0.0
  0
LINE
  5
A9
330
1F
100
AcDbEntity
  8
0
  6
Continuous
 62
     7
370
    25
100
AcDbLine
 10
-139.5996272242
 20
190.0314365546
 30
0.0
 11
-153.5996272242
 21
190.0314365546
 31
0.0
  0
INSERT
  5
B5
330
1F
100
AcDbEntity
  8
FORMAT
 62
     7
100
AcDbBlockReference
  2
SW_CENTERMARKSYMBOL_1
 10
-72.5996272242
 20
111.5314365546
 30
0.0
  0
LINE
  5
B6
330
1F
100
AcDbEntity
  8
0
  6
Continuous
 62
     7
370
    25
100
AcDbLine
 10
154.3295369748
 20
334.0451591689
 30
0.0
 11
154.3295369748
 21
384.5451591689
 31
0.0
  0
LINE
  5
B7
330
1F
100
AcDbEntity
  8
0
  6
Continuous
 62
     7
370
    25
100
AcDbLine
 10
154.3295369748
 20
220.5451591689
 30
0.0
 11
154.3295369748
 21
271.049781407
 31
0.0
  0
LINE
  5
B8
330
1F
100
AcDbEntity
  8
0
  6
Continuous
 62
     7
370
    25
100
AcDbLine
 10
74.3295369748
 20
384.5451591689
 30
0.0
 11
74.3295369748
 21
220.5451591689
 31
0.0
  0
LINE
  5
B9
330
1F
100
AcDbEntity
  8
0
  6
Continuous
 62
     7
370
    25
100
AcDbLine
 10
154.3258980366
 20
271.0451591689
 30
0.0
 11
227.3295369748
 21
271.0451591689
 31
0.0
  0
LINE
  5
BA
330
1F
100
AcDbEntity
  8
0
  6
Continuous
 62
     7
370
    25
100
AcDbLine
 10
227.3295369748
 20
334.0451591689
 30
0.0
 11
154.3295369748
 21
334.0451591689
 31
0.0
  0
SPLINE
  5
BB
330
1F
100
AcDbEntity
  8
0
  6
Continuous
 62
     7
370
    25
100
AcDbSpline
210
0.0
220
0.0
230
1.0
 70
     8
 71
     3
 72
    47
 73
    43
 74
     0
 42
0.00000001
 43
0.00000001
 40
0.0
 40
0.0
 40
0.0
 40
0.0
 40
0.0214625442729085
 40
0.0429257508906221
 40
0.0651026787566809
 40
0.087281535376534
 40
0.1087205854370181
 40
0.1301616840670192
 40
0.1521256184463187
 40
0.1740916079644106
 40
0.2028106197147275
 40
0.23153386387556
 40
0.2610792100086037
 40
0.2906262856121529
 40
0.3197412531184413
 40
0.3488533935896345
 40
0.3788607410767953
 40
0.4088544456510056
 40
0.4429406992267944
 40
0.4778522931917277
 40
0.5119973149180941
 40
0.5296800490863794
 40
0.5473653017356641
 40
0.5675741217505287
 40
0.5877883886717665
 40
0.608563589687335
 40
0.6293426643373295
 40
0.6587659200497851
 40
0.6881948477679405
 40
0.7184485310719111
 40
0.7487017881413185
 40
0.7786130537828124
 40
0.8085202630882508
 40
0.8394712195707168
 40
0.8704144339436521
 40
0.891596585813712
 40
0.9127767862570845
 40
0.9345396540828277
 40
0.9563007269519934
 40
0.977506658708774
 40
0.9987119302149574
 40
1.0
 40
1.0
 40
1.0
 40
1.0
 10
154.3295369747899
 20
334.0451591689405
 30
0.0
 10
154.3172741702832
 20
334.0296161182764
 30
0.0
 10
154.2927481828336
 20
333.998529537282
 30
0.0
 10
154.0961372410458
 20
333.748421187527
 30
0.0
 10
153.7803901134154
 20
333.3453943698504
 30
0.0
 10
153.3434336377516
 20
332.7839629923861
 30
0.0
 10
152.8039567086331
 20
332.085166699125
 30
0.0
 10
152.1716791699241
 20
331.2573236565549
 30
0.0
 10
151.4477849109627
 20
330.2971431426615
 30
0.0
 10
150.5602131463299
 20
329.1002336572159
 30
0.0
 10
149.5004350731323
 20
327.6391838026311
 30
0.0
 10
148.2570301347061
 20
325.8672682428966
 30
0.0
 10
146.9432009726278
 20
323.9161625510407
 30
0.0
 10
145.5954580856105
 20
321.8007469132558
 30
0.0
 10
144.2563952921453
 20
319.5482461568217
 30
0.0
 10
142.9505520650077
 20
317.137157011251
 30
0.0
 10
141.7142092699236
 20
314.5510470451802
 30
0.0
 10
140.5607685985813
 20
311.6560989038725
 30
0.0
 10
139.5995692537037
 20
308.4287213934743
 30
0.0
 10
139.0066172732658
 20
304.8959444321709
 30
0.0
 10
138.9401255210278
 20
301.8553337901254
 30
0.0
 10
139.1547773005591
 20
299.4451937462334
 30
0.0
 10
139.4600614743019
 20
297.5454201471031
 30
0.0
 10
139.9167784974038
 20
295.604886765055
 30
0.0
 10
140.5250620601194
 20
293.6239787272001
 30
0.0
 10
141.2450296014334
 20
291.6955980376452
 30
0.0
 10
142.1669684365319
 20
289.5652331279221
 30
0.0
 10
143.2949452824495
 20
287.2900468436749
 30
0.0
 10
144.6295554593688
 20
284.8952835345538
 30
0.0
 10
146.0051874807239
 20
282.6302097451835
 30
0.0
 10
147.3819284222541
 20
280.512024021144
 30
0.0
 10
148.7118003890517
 20
278.5661524168714
 30
0.0
 10
149.9812819283507
 20
276.781862496314
 30
0.0
 10
151.1591065111447
 20
275.1769451078213
 30
0.0
 10
152.0997151215827
 20
273.9271269415009
 30
0.0
 10
152.8121432719452
 20
272.9945233759514
 30
0.0
 10
153.3433317854227
 20
272.3065205567788
 30
0.0
 10
153.7724098141391
 20
271.7551509434426
 30
0.0
 10
154.0910390348011
 20
271.3484134541859
 30
0.0
 10
154.2715676360128
 20
271.1186766648059
 30
0.0
 10
154.3481252569963
 20
271.0215584419726
 30
0.0
 10
154.3271005716348
 20
271.0482527698097
 30
0.0
 10
154.325896603687
 20
271.0497814069594
 30
0.0
  0
LINE
  5
BC
330
1F
100
AcDbEntity
  8
0
  6
Continuous
 62
     7
370
    25
100
AcDbLine
 10
74.3295369748
 20
384.5451591689
 30
0.0
 11
154.3295369748
 21
384.5451591689
 31
0.0
  0
LINE
  5
BD
330
1F
100
AcDbEntity
  8
0
  6
Continuous
 62
     7
370
    25
100
AcDbLine
 10
74.3295369748
 20
220.5451591689
 30
0.0
 11
154.3295369748
 21
220.5451591689
 31
0.0
  0
LINE
  5
BE
330
1F
100
AcDbEntity
  8
0
  6
Continuous
 62
     7
370
    25
100
AcDbLine
 10
227.3295369748
 20
334.0451591689
 30
0.0
 11
227.3295369748
 21
271.0451591689
 31
0.0
  0
LINE
  5
BF
330
1F
100
AcDbEntity
  8
0
  6
Continuous
 62
     7
370
    25
100
AcDbLine
 10
275.9958538199
 20
71.5314365546
 30
0.0
 11
439.9958538199
 21
71.5314365546
 31
0.0
  0
LINE
  5
C0
330
1F
100
AcDbEntity
  8
0
  6
Continuous
 62
     7
370
    25
100
AcDbLine
 10
276.9958538199
 20
151.5314365546
 30
0.0
 11
275.9958538199
 21
151.5314365546
 31
0.0
  0
LINE
  5
C1
330
1F
100
AcDbEntity
  8
0
  6
Continuous
 62
     7
370
    25
100
AcDbLine
 10
424.9958538199
 20
151.5314365546
 30
0.0
 11
290.9770188705
 21
151.5314365546
 31
0.0
  0
LINE
  5
C2
330
1F
100
AcDbEntity
  8
0
  6
Continuous
 62
     7
370
    25
100
AcDbLine
 10
439.9958538199
 20
151.5314365546
 30
0.0
 11
438.9770188705
 21
151.5314365546
 31
0.0
  0
LINE
  5
C3
330
1F
100
AcDbEntity
  8
0
  6
Continuous
 62
     7
370
    25
100
AcDbLine
 10
290.9958538199
 20
151.5281537948
 30
0.0
 11
290.9958538199
 21
190.0314365546
 31
0.0
  0
LINE
  5
C4
330
1F
100
AcDbEntity
  8
0
  6
Continuous
 62
     7
370
    25
100
AcDbLine
 10
276.9958538199
 20
190.0314365546
 30
0.0
 11
276.9958538199
 21
151.5314365546
 31
0.0
  0
LINE
  5
C5
330
1F
100
AcDbEntity
  8
0
  6
Continuous
 62
     7
370
    25
100
AcDbLine
 10
438.9958538199
 20
151.5281537948
 30
0.0
 11
438.9958538199
 21
190.0314365546
 31
0.0
  0
LINE
  5
C6
330
1F
100
AcDbEntity
  8
0
  6
Continuous
 62
     7
370
    25
100
AcDbLine
 10
424.9958538199
 20
190.0314365546
 30
0.0
 11
424.9958538199
 21
151.5314365546
 31
0.0
  0
LINE
  5
C7
330
1F
100
AcDbEntity
  8
0
  6
Continuous
 62
     7
370
    25
100
AcDbLine
 10
439.9958538199
 20
151.5314365546
 30
0.0
 11
439.9958538199
 21
71.5314365546
 31
0.0
  0
LINE
  5
C8
330
1F
100
AcDbEntity
  8
0
  6
Continuous
 62
     7
370
    25
100
AcDbLine
 10
275.9958538199
 20
151.5314365546
 30
0.0
 11
275.9958538199
 21
71.5314365546
 31
0.0
  0
SPLINE
  5
C9
330
1F
100
AcDbEntity
  8
0
  6
Continuous
 62
     7
370
    25
100
AcDbSpline
210
0.0
220
0.0
230
1.0
 70
     8
 71
     3
 72
    26
 73
    22
 74
     0
 42
0.00000001
 43
0.00000001
 40
0.0
 40
0.0
 40
0.0
 40
0.0
 40
0.0142484644275621
 40
0.0682047854705338
 40
0.1202918722527088
 40
0.1738623030885345
 40
0.2264594863351627
 40
0.2805475599452507
 40
0.3337266108351131
 40
0.3884598919559
 40
0.4413831263968189
 40
0.4958835309922
 40
0.5480923534488612
 40
0.6018209588757726
 40
0.6539787920249522
 40
0.7076114857205106
 40
0.7604510402235318
 40
0.8147999241716328
 40
0.868000918637421
 40
0.922772953221894
 40
1.0
 40
1.0
 40
1.0
 40
1.0
 10
290.9770188704563
 20
151.5281492724208
 30
0.0
 10
290.982567889988
 20
151.5291176215197
 30
0.0
 10
291.0091300285713
 20
151.5337529310219
 30
0.0
 10
290.8608373316983
 20
151.5077766701622
 30
0.0
 10
290.5292403410486
 20
151.4517185743342
 30
0.0
 10
290.0069397278543
 20
151.3687632390009
 30
0.0
 10
289.3155182861664
 20
151.2694275995763
 30
0.0
 10
288.4764408844192
 20
151.1647859305249
 30
0.0
 10
287.4990224931751
 20
151.0652339747521
 30
0.0
 10
286.4272953107607
 20
150.9839077035155
 30
0.0
 10
285.27615033428
 20
150.9292121785032
 30
0.0
 10
284.1051073694414
 20
150.9084190201519
 30
0.0
 10
282.9257679378767
 20
150.9230311128263
 30
0.0
 10
281.7935162773077
 20
150.970512564856
 30
0.0
 10
280.714194960654
 20
151.0461919363201
 30
0.0
 10
279.7318845629154
 20
151.1407279092267
 30
0.0
 10
278.8565795786852
 20
151.2453923659453
 30
0.0
 10
278.1262742804171
 20
151.3474733941621
 30
0.0
 10
277.5589288255268
 20
151.4357745407264
 30
0.0
 10
277.1021759395319
 20
151.5125429132217
 30
0.0
 10
277.0350981694293
 20
151.5244627596126
 30
0.0
 10
276.9958538198777
 20
151.5314365546218
 30
0.0
  0
SPLINE
  5
CA
330
1F
100
AcDbEntity
  8
0
  6
Continuous
 62
     7
370
    25
100
AcDbSpline
210
0.0
220
0.0
230
1.0
 70
     8
 71
     3
 72
    26
 73
    22
 74
     0
 42
0.00000001
 43
0.00000001
 40
0.0
 40
0.0
 40
0.0
 40
0.0
 40
0.014248464427562
 40
0.0682047854705337
 40
0.1202918722527087
 40
0.1738623030885345
 40
0.2264594863351623
 40
0.2805475599452508
 40
0.3337266108351132
 40
0.3884598919559001
 40
0.4413831263968191
 40
0.4958835309922001
 40
0.5480923534488614
 40
0.6018209588757727
 40
0.6539787920249518
 40
0.7076114857205099
 40
0.760451040223532
 40
0.8147999241716329
 40
0.8680009186374211
 40
0.9227729532218939
 40
1.0
 40
1.0
 40
1.0
 40
1.0
 10
438.9770188704564
 20
151.5281492724208
 30
0.0
 10
438.982567889988
 20
151.5291176215197
 30
0.0
 10
439.0091300285713
 20
151.5337529310219
 30
0.0
 10
438.8608373316984
 20
151.5077766701622
 30
0.0
 10
438.5292403410486
 20
151.4517185743342
 30
0.0
 10
438.0069397278544
 20
151.3687632390009
 30
0.0
 10
437.3155182861664
 20
151.2694275995763
 30
0.0
 10
436.4764408844192
 20
151.1647859305249
 30
0.0
 10
435.4990224931751
 20
151.0652339747521
 30
0.0
 10
434.4272953107607
 20
150.9839077035155
 30
0.0
 10
433.27615033428
 20
150.9292121785032
 30
0.0
 10
432.1051073694414
 20
150.9084190201519
 30
0.0
 10
430.9257679378767
 20
150.9230311128263
 30
0.0
 10
429.7935162773078
 20
150.9705125648559
 30
0.0
 10
428.714194960654
 20
151.0461919363202
 30
0.0
 10
427.7318845629154
 20
151.1407279092267
 30
0.0
 10
426.8565795786852
 20
151.2453923659453
 30
0.0
 10
426.1262742804171
 20
151.3474733941621
 30
0.0
 10
425.5589288255268
 20
151.4357745407264
 30
0.0
 10
425.1021759395319
 20
151.5125429132217
 30
0.0
 10
425.0350981694294
 20
151.5244627596126
 30
0.0
 10
424.9958538198778
 20
151.5314365546218
 30
0.0
  0
LINE
  5
CB
330
1F
100
AcDbEntity
  8
0
  6
Continuous
 62
     7
370
    25
100
AcDbLine
 10
290.9958538199
 20
190.0314365546
 30
0.0
 11
276.9958538199
 21
190.0314365546
 31
0.0
  0
LINE
  5
CC
330
1F
100
AcDbEntity
  8
0
  6
Continuous
 62
     7
370
    25
100
AcDbLine
 10
438.9958538199
 20
190.0314365546
 30
0.0
 11
424.9958538199
 21
190.0314365546
 31
0.0
  0
LINE
  5
CD
330
1F
100
AcDbEntity
  8
0
  6
Continuous
 62
     7
370
    25
100
AcDbLine
 10
74.3295369748
 20
7.8841878373
 30
0.0
 11
74.3295369748
 21
-156.1158121627
 31
0.0
  0
LINE
  5
CE
330
1F
100
AcDbEntity
  8
0
  6
Continuous
 62
     7
370
    25
100
AcDbLine
 10
154.3295369748
 20
-42.6204344007
 30
0.0
 11
154.3295369748
 21
7.8841878373
 31
0.0
  0
LINE
  5
CF
330
1F
100
AcDbEntity
  8
0
  6
Continuous
 62
     7
370
    25
100
AcDbLine
 10
154.3295369748
 20
-156.1158121627
 30
0.0
 11
154.3295369748
 21
-105.6158121627
 31
0.0
  0
LINE
  5
D0
330
1F
100
AcDbEntity
  8
0
  6
Continuous
 62
     7
370
    25
100
AcDbLine
 10
154.3295369748
 20
-105.6158121627
 30
0.0
 11
227.3295369748
 21
-105.6158121627
 31
0.0
  0
LINE
  5
D1
330
1F
100
AcDbEntity
  8
0
  6
Continuous
 62
     7
370
    25
100
AcDbLine
 10
227.3295369748
 20
-42.6158121627
 30
0.0
 11
154.3258980366
 21
-42.6158121627
 31
0.0
  0
CIRCLE
  5
D2
330
1F
100
AcDbEntity
  8
0
  6
Continuous
 62
     7
370
    25
100
AcDbCircle
 10
114.3295369748
 20
-0.1158121627
 30
0.0
 40
5.000000000000004
  0
CIRCLE
  5
D3
330
1F
100
AcDbEntity
  8
0
  6
Continuous
 62
     7
370
    25
100
AcDbCircle
 10
114.3295369748
 20
-0.1158121627
 30
0.0
 40
7.00000000000002
  0
CIRCLE
  5
D4
330
1F
100
AcDbEntity
  8
0
  6
Continuous
 62
     7
370
    25
100
AcDbCircle
 10
114.3295369748
 20
-148.1158121627
 30
0.0
 40
7.000000000000028
  0
CIRCLE
  5
D5
330
1F
100
AcDbEntity
  8
0
  6
Continuous
 62
     7
370
    25
100
AcDbCircle
 10
114.3295369748
 20
-148.1158121627
 30
0.0
 40
5.0
  0
LWPOLYLINE
  5
D6
330
1F
100
AcDbEntity
  8
0
  6
Continuous
 62
     7
370
    25
100
AcDbPolyline
 90
       38
 70
   128
 43
0.0
 10
154.3258966037
 20
-42.6204344007
 10
154.2712210561
 20
-42.6898563649
 10
154.0838528796
 20
-42.9283846788
 10
153.4312875173
 20
-43.7645865616
 10
152.386820164
 20
-45.122592201
 10
150.9529515573
 20
-47.0321548084
 10
149.2231174992
 20
-49.4214411074
 10
148.1222551909
 20
-51.0029817131
 10
146.9797901049
 20
-52.7081259388
 10
145.7910293036
 20
-54.5688296282
 10
144.6015481361
 20
-56.547526539
 10
143.4798511636
 20
-58.559422449
 10
142.4062222605
 20
-60.6789130921
 10
141.3874847841
 20
-62.9628672159
 10
140.4908648777
 20
-65.359952545
 10
139.5712204296
 20
-68.6943194131
 10
139.0514682184
 20
-72.2654380347
 10
139.0406082315
 20
-75.8149421323
 10
139.2324045227
 20
-77.6355269085
 10
139.5478798183
 20
-79.427574184
 10
140.0593192179
 20
-81.4821757302
 10
140.6976034656
 20
-83.471288124
 10
141.4586615887
 20
-85.4402296751
 10
142.3009799949
 20
-87.3313948069
 10
143.5770540746
 20
-89.8539182372
 10
144.9181525387
 20
-92.2241914971
 10
146.3195140865
 20
-94.5026770558
 10
147.7060605177
 20
-96.61564158
 10
149.0207133533
 20
-98.523513744
 10
150.2560631072
 20
-100.2494165819
 10
151.4196573812
 20
-101.8274250731
 10
152.4308091382
 20
-103.1667491608
 10
153.0030866107
 20
-103.913376965
 10
153.483105422
 20
-104.5337661069
 10
153.8706497137
 20
-105.0310448713
 10
154.1438865969
 20
-105.3797280376
 10
154.3295369748
 20
-105.6158121627
 10
154.3295369748
 20
-105.6158121627
  0
LINE
  5
D7
330
1F
100
AcDbEntity
  8
0
  6
Continuous
 62
     7
370
    25
100
AcDbLine
 10
154.3295369748
 20
-156.1158121627
 30
0.0
 11
74.3295369748
 21
-156.1158121627
 31
0.0
  0
LINE
  5
D8
330
1F
100
AcDbEntity
  8
0
  6
Continuous
 62
     7
370
    25
100
AcDbLine
 10
154.3295369748
 20
7.8841878373
 30
0.0
 11
74.3295369748
 21
7.8841878373
 31
0.0
  0
LINE
  5
D9
330
1F
100
AcDbEntity
  8
0
  6
Continuous
 62
     7
370
    25
100
AcDbLine
 10
227.3295369748
 20
-42.6158121627
 30
0.0
 11
227.3295369748
 21
-105.6158121627
 31
0.0
  0
INSERT
  5
E5
330
1F
100
AcDbEntity
  8
FORMAT
 62
     7
100
AcDbBlockReference
  2
SW_CENTERMARKSYMBOL_2
 10
114.3295369748
 20
-0.1158121627
 30
0.0
  0
INSERT
  5
F1
330
1F
100
AcDbEntity
  8
FORMAT
 62
     7
100
AcDbBlockReference
  2
SW_CENTERMARKSYMBOL_3
 10
114.3295369748
 20
-148.1158121627
 30
0.0
  0
LINE
  5
F2
330
1F
100
AcDbEntity
  8
0
  6
Continuous
 62
     7
370
    25
100
AcDbLine
 10
395.2044161895
 20
-103.1583116038
 30
0.0
 11
451.6175560096
 21
-70.5916991855
 31
0.0
  0
LINE
  5
F3
330
1F
100
AcDbEntity
  8
0
  6
Continuous
 62
     7
370
    25
100
AcDbLine
 10
420.1201159316
 20
-16.0306208556
 30
0.0
 11
363.7079602555
 21
-48.5966651396
 31
0.0
  0
LINE
  5
F4
330
1F
100
AcDbEntity
  8
0
  6
Continuous
 62
     7
370
    25
100
AcDbLine
 10
364.4664605252
 20
-48.1587922543
 30
0.0
 11
317.9813882919
 21
-21.3235312586
 31
0.0
  0
LINE
  5
F5
330
1F
100
AcDbEntity
  8
0
  6
Continuous
 62
     7
370
    25
100
AcDbLine
 10
433.9469004065
 20
-88.268996428
 30
0.0
 11
427.4715807853
 21
-84.5308739789
 31
0.0
  0
LINE
  5
F6
330
1F
100
AcDbEntity
  8
0
  6
Continuous
 62
     7
370
    25
100
AcDbLine
 10
277.9846389865
 20
-90.607440249
 30
0.0
 11
393.9501511011
 21
-157.5529054185
 31
0.0
  0
LINE
  5
F7
330
1F
100
AcDbEntity
  8
0
  6
Continuous
 62
     7
370
    25
100
AcDbLine
 10
310.6398678887
 20
-19.4498598612
 30
0.0
 11
310.6398678887
 21
4.8673355319
 31
0.0
  0
LINE
  5
F8
330
1F
100
AcDbEntity
  8
0
  6
Continuous
 62
     7
370
    25
100
AcDbLine
 10
296.6398678887
 20
4.8673355319
 30
0.0
 11
296.6398678887
 21
-24.1160824182
 31
0.0
  0
SPLINE
  5
F9
330
1F
100
AcDbEntity
  8
0
  6
Continuous
 62
     7
370
    25
100
AcDbSpline
210
0.0
220
0.0
230
1.0
 70
     8
 71
     3
 72
    37
 73
    33
 74
     0
 42
0.00000001
 43
0.00000001
 40
0.0
 40
0.0
 40
0.0
 40
0.0
 40
0.0285203062966567
 40
0.0570414927441695
 40
0.086511101166002
 40
0.1159832725947309
 40
0.1444723588213893
 40
0.1729641672709749
 40
0.2021507412396538
 40
0.2313400461607816
 40
0.2695030431121828
 40
0.3076716642637136
 40
0.346932728126435
 40
0.3861960901802713
 40
0.4248852493283178
 40
0.4635706517965504
 40
0.5034456419469173
 40
0.5433025028367836
 40
0.588597710158225
 40
0.6349896635316765
 40
0.6803629643742611
 40
0.7038605044715196
 40
0.7273613912292949
 40
0.7542156974750585
 40
0.7810772417927001
 40
0.808684178267913
 40
0.8362962621869193
 40
0.8753950873072631
 40
0.9145014496206731
 40
0.9547037808755203
 40
0.9949055457324538
 40
1.0
 40
1.0
 40
1.0
 40
1.0
 10
361.976177336582
 20
-60.25162834087549
 30
0.0
 10
361.9784968208838
 20
-60.87394010360588
 30
0.0
 10
361.983135861068
 20
-62.11858283391756
 30
0.0
 10
362.0209642410175
 20
-64.13909132892023
 30
0.0
 10
362.0826803017091
 20
-66.26030709558599
 30
0.0
 10
362.1706973488597
 20
-68.45053717769474
 30
0.0
 10
362.2833531516193
 20
-70.66343356028989
 30
0.0
 10
362.4216388455655
 20
-72.89910574819349
 30
0.0
 10
362.5887184587292
 20
-75.16870902714592
 30
0.0
 10
362.8074532587927
 20
-77.69311526535373
 30
0.0
 10
363.0911952565105
 20
-80.4391946435364
 30
0.0
 10
363.4649087007662
 20
-83.40711571922763
 30
0.0
 10
363.9155312564651
 20
-86.34296568030103
 30
0.0
 10
364.4583578642572
 20
-89.21238131803895
 30
0.0
 10
365.1042560420942
 20
-91.97208953187946
 30
0.0
 10
365.8857829257904
 20
-94.63197277752059
 30
0.0
 10
366.8402124458279
 20
-97.17780389861485
 30
0.0
 10
368.0716441857187
 20
-99.67867248385772
 30
0.0
 10
369.6740741407975
 20
-102.0442335094398
 30
0.0
 10
371.7528442935971
 20
-104.1112228004399
 30
0.0
 10
373.8558640108408
 20
-105.4215168944886
 30
0.0
 10
375.7118719372095
 20
-106.1804423502312
 30
0.0
 10
377.2710837963303
 20
-106.6324743826501
 30
0.0
 10
378.9661934391795
 20
-106.9337252593847
 30
0.0
 10
380.797037565366
 20
-107.0735005105944
 30
0.0
 10
382.6696673831261
 20
-107.0461636512643
 30
0.0
 10
384.8281224002112
 20
-106.837454462879
 30
0.0
 10
387.2337268286614
 20
-106.3828729720055
 30
0.0
 10
389.873977727182
 20
-105.623066406495
 30
0.0
 10
392.4361702607587
 20
-104.5980827496511
 30
0.0
 10
394.2271013828038
 20
-103.7586244617529
 30
0.0
 10
395.0989833103498
 20
-103.2080191813649
 30
0.0
 10
395.1970436494341
 20
-103.1460927452379
 30
0.0
  0
SPLINE
  5
FA
330
1F
100
AcDbEntity
  8
0
  6
Continuous
 62
     7
370
    25
100
AcDbSpline
210
0.0
220
0.0
230
1.0
 70
     8
 71
     3
 72
    17
 73
    13
 74
     0
 42
0.00000001
 43
0.00000001
 40
0.0
 40
0.0
 40
0.0
 40
0.0
 40
0.0138723782121255
 40
0.1356120266274065
 40
0.2573332439106816
 40
0.3835196679765502
 40
0.5096724324240225
 40
0.5937996165572501
 40
0.6779195088631639
 40
0.764336735084983
 40
0.8507476945103554
 40
1.0
 40
1.0
 40
1.0
 40
1.0
 10
363.7143076910286
 20
-48.60820121737994
 30
0.0
 10
363.6949689050035
 20
-48.61441672814923
 30
0.0
 10
363.5059189868666
 20
-48.67517761565224
 30
0.0
 10
363.2310597588007
 20
-49.0261140012928
 30
0.0
 10
362.8741549432715
 20
-49.70201426482153
 30
0.0
 10
362.5877507705308
 20
-50.70570685881032
 30
0.0
 10
362.3815910953567
 20
-51.88128497303322
 30
0.0
 10
362.2380902914139
 20
-53.12312704361459
 30
0.0
 10
362.1378835669524
 20
-54.34176706823087
 30
0.0
 10
362.0615136723852
 20
-55.72297979988969
 30
0.0
 10
361.993186500323
 20
-57.62119687628958
 30
0.0
 10
361.9827726969622
 20
-59.2316697039484
 30
0.0
 10
361.976177336582
 20
-60.25162834087549
 30
0.0
  0
LWPOLYLINE
  5
FB
330
1F
100
AcDbEntity
  8
0
  6
Continuous
 62
     7
370
    25
100
AcDbPolyline
 90
       85
 70
   128
 43
0.0
 10
458.142699578
 20
-56.1695877818
 10
458.0804173377
 20
-54.2114976142
 10
457.8939189247
 20
-52.1924483372
 10
457.5842473135
 20
-50.1237312934
 10
457.1531343136
 20
-48.0169155876
 10
456.6029908836
 20
-45.8837833878
 10
455.9368936487
 20
-43.7362640346
 10
455.158567695
 20
-41.5863673273
 10
454.2723657368
 20
-39.4461163604
 10
453.283243775
 20
-37.3274802854
 10
452.1967333808
 20
-35.2423073748
 10
451.0189107611
 20
-33.2022587611
 10
449.7563627778
 20
-31.2187432239
 10
448.4161501112
 20
-29.3028533865
 10
447.0057677743
 20
-27.4653036821
 10
445.5331031971
 20
-25.716370434
 10
444.0063921175
 20
-24.0658343864
 10
442.434172523
 20
-22.5229260064
 10
440.8252369033
 20
-21.0962738635
 10
439.1885830791
 20
-19.7938563751
 10
437.5333638825
 20
-18.6229571883
 10
435.8688359706
 20
-17.5901244462
 10
434.2043080587
 20
-16.7011341684
 10
432.549088862
 20
-15.9609579492
 10
430.9124350378
 20
-15.3737351542
 10
429.3034994182
 20
-14.9427497716
 10
427.7312798237
 20
-14.6704120464
 10
426.204568744
 20
-14.5582450016
 10
424.7319041669
 20
-14.6068759209
 10
423.32152183
 20
-14.8160328404
 10
421.9813091634
 20
-15.1845460698
 10
420.71876118
 20
-15.7103547336
 10
419.5409385603
 20
-16.3905182965
 10
418.4544281661
 20
-17.2212330079
 10
417.4653062043
 20
-18.1978531743
 10
416.5791042462
 20
-19.3149171394
 10
415.8007782924
 20
-20.5661778285
 10
415.1346810576
 20
-21.9446376843
 10
414.5845376276
 20
-23.4425878
 10
414.1534246276
 20
-25.051651031
 10
413.8437530165
 20
-26.7628288431
 10
413.6572546034
 20
-28.5665516357
 10
413.5949723632
 20
-30.4527322593
 10
413.6572546034
 20
-32.4108224269
 10
413.8437530165
 20
-34.4298717039
 10
414.1534246276
 20
-36.4985887477
 10
414.5845376276
 20
-38.6054044535
 10
415.1346810576
 20
-40.7385366533
 10
415.8007782924
 20
-42.8860560065
 10
416.5791042462
 20
-45.0359527138
 10
417.4653062043
 20
-47.1762036807
 10
418.4544281661
 20
-49.2948397557
 10
419.5409385603
 20
-51.3800126664
 10
420.71876118
 20
-53.42006128
 10
421.9813091634
 20
-55.4035768173
 10
423.32152183
 20
-57.3194666546
 10
424.7319041669
 20
-59.157016359
 10
426.204568744
 20
-60.9059496071
 10
427.7312798237
 20
-62.5564856547
 10
429.3034994182
 20
-64.0993940347
 10
430.9124350378
 20
-65.5260461776
 10
432.549088862
 20
-66.828463666
 10
434.2043080587
 20
-67.9993628528
 10
435.8688359706
 20
-69.032195595
 10
437.5333638825
 20
-69.9211858727
 10
439.1885830791
 20
-70.6613620919
 10
440.8252369033
 20
-71.2485848869
 10
442.434172523
 20
-71.6795702695
 10
444.0063921175
 20
-71.9519079947
 10
445.5331031971
 20
-72.0640750395
 10
447.0057677743
 20
-72.0154441202
 10
448.4161501112
 20
-71.8062872007
 10
449.7563627778
 20
-71.4377739714
 10
451.0189107611
 20
-70.9119653075
 10
452.1967333808
 20
-70.2318017446
 10
453.283243775
 20
-69.4010870332
 10
454.2723657368
 20
-68.4244668668
 10
455.158567695
 20
-67.3074029017
 10
455.9368936487
 20
-66.0561422126
 10
456.6029908836
 20
-64.6776823568
 10
457.1531343136
 20
-63.1797322411
 10
457.5842473135
 20
-61.5706690101
 10
457.8939189247
 20
-59.859491198
 10
458.0804173377
 20
-58.0557684054
 10
458.142699578
 20
-56.1695877818
  0
LWPOLYLINE
  5
FC
330
1F
100
AcDbEntity
  8
0
  6
Continuous
 62
     7
370
    25
100
AcDbPolyline
 90
       77
 70
   128
 43
0.0
 10
454.0414802471
 20
-53.8020042575
 10
453.9794114535
 20
-52.0332369766
 10
453.7936290654
 20
-50.2048890661
 10
453.485402165
 20
-48.3294499961
 10
453.0568362546
 20
-46.419730917
 10
452.5108588738
 20
-44.4887771467
 10
451.8511996018
 20
-42.5497790573
 10
451.0823645802
 20
-40.6159819719
 10
450.209605732
 20
-38.7005956855
 10
449.238884885
 20
-36.8167042285
 10
448.1768330468
 20
-34.9771764899
 10
447.0307051084
 20
-33.1945783093
 10
445.8083302858
 20
-31.4810866399
 10
444.5180586386
 20
-29.8484063672
 10
443.1687040303
 20
-28.3076903531
 10
441.7694839212
 20
-26.86946325
 10
440.3299564034
 20
-25.5435496076
 10
438.8599549096
 20
-24.3390067605
 10
437.3695210404
 20
-23.2640629576
 10
435.8688359706
 20
-22.3260611551
 10
434.3681509007
 20
-21.5314088565
 10
432.8777170316
 20
-20.8855343427
 10
431.4077155377
 20
-20.3928495916
 10
429.96818802
 20
-20.0567201396
 10
428.5689679109
 20
-19.8794420916
 10
427.2196133026
 20
-19.8622264366
 10
425.9293416553
 20
-20.0051907748
 10
424.7069668328
 20
-20.307358515
 10
423.5608388944
 20
-20.7666655449
 10
422.4987870562
 20
-21.379974332
 10
421.5280662091
 20
-22.1430953552
 10
420.6553073609
 20
-23.0508157242
 10
419.8864723394
 20
-24.0969347885
 10
419.2268130674
 20
-25.2743064941
 10
418.6808356866
 20
-26.5748881985
 10
418.2522697761
 20
-27.9897956097
 10
417.9440428757
 20
-29.5093634755
 10
417.7582604877
 20
-31.1232116065
 10
417.6961916941
 20
-32.8203157836
 10
417.7582604877
 20
-34.5890830645
 10
417.9440428757
 20
-36.417430975
 10
418.2522697761
 20
-38.292870045
 10
418.6808356866
 20
-40.2025891241
 10
419.2268130674
 20
-42.1335428944
 10
419.8864723394
 20
-44.0725409838
 10
420.6553073609
 20
-46.0063380692
 10
421.5280662091
 20
-47.9217243556
 10
422.4987870562
 20
-49.8056158126
 10
423.5608388944
 20
-51.6451435513
 10
424.7069668328
 20
-53.4277417318
 10
425.9293416553
 20
-55.1412334012
 10
427.2196133026
 20
-56.7739136739
 10
428.5689679109
 20
-58.314629688
 10
429.96818802
 20
-59.7528567911
 10
431.4077155377
 20
-61.0787704335
 10
432.8777170316
 20
-62.2833132807
 10
434.3681509007
 20
-63.3582570836
 10
435.8688359706
 20
-64.296258886
 10
437.3695210404
 20
-65.0909111846
 10
438.8599549096
 20
-65.7367856984
 10
440.3299564034
 20
-66.2294704495
 10
441.7694839212
 20
-66.5655999015
 10
443.1687040303
 20
-66.7428779495
 10
444.5180586386
 20
-66.7600936045
 10
445.8083302858
 20
-66.6171292663
 10
447.0307051084
 20
-66.3149615261
 10
448.1768330468
 20
-65.8556544962
 10
449.238884885
 20
-65.2423457091
 10
450.209605732
 20
-64.4792246859
 10
451.0823645802
 20
-63.5715043169
 10
451.8511996018
 20
-62.5253852526
 10
452.5108588738
 20
-61.348013547
 10
453.0568362546
 20
-60.0474318427
 10
453.485402165
 20
-58.6325244314
 10
453.7936290654
 20
-57.1129565656
 10
453.9794114535
 20
-55.4991084346
 10
454.0414802471
 20
-53.8020042575
  0
LWPOLYLINE
  5
FD
330
1F
100
AcDbEntity
  8
0
  6
Continuous
 62
     7
370
    25
100
AcDbPolyline
 90
       96
 70
   128
 43
0.0
 10
326.2672848867
 20
-39.6373235174
 10
326.2054449259
 20
-37.5143965915
 10
326.0201954539
 20
-35.4721515839
 10
325.7123465196
 20
-33.5195187124
 10
325.283244268
 20
-31.6650363436
 10
324.734765054
 20
-29.9168136572
 10
324.0693072377
 20
-28.282495186
 10
323.2897806969
 20
-26.7692273891
 10
322.3995941027
 20
-25.3836274013
 10
321.4026400147
 20
-24.1317540989
 10
320.3032778593
 20
-23.0190816054
 10
319.1063148676
 20
-22.0504753544
 10
317.8169850543
 20
-21.2301708147
 10
316.4409263304
 20
-20.5617549692
 10
314.9841558507
 20
-20.0481506303
 10
313.4530437018
 20
-19.6916036593
 10
311.8542850477
 20
-19.4936731452
 10
310.194870853
 20
-19.4552245879
 10
308.4820573139
 20
-19.576426113
 10
306.7233341282
 20
-19.8567477372
 10
304.9263917448
 20
-20.2949636854
 10
303.0990877356
 20
-20.8891577506
 10
301.2494124362
 20
-21.6367316735
 10
299.3854540058
 20
-22.5344165034
 10
297.5153630606
 20
-23.578286893
 10
295.6473170324
 20
-24.7637782628
 10
293.7894844112
 20
-26.0857067605
 10
291.9499890263
 20
-27.5382919292
 10
290.1368745229
 20
-29.1151819835
 10
288.3580691896
 20
-30.8094815846
 10
286.6213512895
 20
-32.6137819912
 10
284.9343150479
 20
-34.5201934568
 10
283.3043374452
 20
-36.5203797291
 10
281.7385459587
 20
-38.6055945026
 10
280.2437873961
 20
-40.7667196634
 10
278.8265979564
 20
-42.9943051613
 10
277.4931746484
 20
-45.2786103315
 10
276.2493481929
 20
-47.6096464888
 10
275.1005575265
 20
-49.9772206052
 10
274.0518260185
 20
-52.3709798814
 10
273.1077395051
 20
-54.7804570172
 10
272.2724262362
 20
-57.1951159822
 10
271.5495388242
 20
-59.604398087
 10
270.942238272
 20
-61.9977681541
 10
270.4531801503
 20
-64.3647605851
 10
270.0845029858
 20
-66.6950251243
 10
269.8378189099
 20
-68.9783721179
 10
269.7142066094
 20
-71.2048170704
 10
269.7142066094
 20
-73.3646243045
 10
269.8378189099
 20
-75.4483495327
 10
270.0845029858
 20
-77.4468811547
 10
270.4531801503
 20
-79.3514801004
 10
270.942238272
 20
-81.153818043
 10
271.5495388242
 20
-82.8460138174
 10
272.2724262362
 20
-84.420667882
 10
273.1077395051
 20
-85.8708946752
 10
274.0518260185
 20
-87.1903527243
 10
275.1005575265
 20
-88.3732723749
 10
276.2493481929
 20
-89.4144810203
 10
277.4931746484
 20
-90.3094257201
 10
278.8265979564
 20
-91.0541931089
 10
280.2437873961
 20
-91.6455265082
 10
281.7385459587
 20
-92.0808401677
 10
283.3043374452
 20
-92.3582305714
 10
284.9343150479
 20
-92.4764847618
 10
286.6213512895
 20
-92.4350856432
 10
288.3580691896
 20
-92.2342142435
 10
290.1368745229
 20
-91.8747489223
 10
291.9499890263
 20
-91.35826153
 10
293.7894844112
 20
-90.6870105344
 10
295.6473170324
 20
-89.8639311454
 10
297.5153630606
 20
-88.8926224797
 10
299.3854540058
 20
-87.777331823
 10
301.2494124362
 20
-86.5229360576
 10
303.0990877356
 20
-85.134920337
 10
304.9263917448
 20
-83.6193541008
 10
306.7233341282
 20
-81.9828645344
 10
308.4820573139
 20
-80.2326075905
 10
310.194870853
 20
-78.3762366972
 10
311.8542850477
 20
-76.4218692922
 10
313.4530437018
 20
-74.3780513268
 10
314.9841558507
 20
-72.2537198971
 10
316.4409263304
 20
-70.0581641637
 10
317.8169850543
 20
-67.8009847334
 10
319.1063148676
 20
-65.4920516775
 10
320.3032778593
 20
-63.1414613726
 10
321.4026400147
 20
-60.7594923523
 10
322.3995941027
 20
-58.3565603608
 10
323.2897806969
 20
-55.9431728085
 10
324.0693072377
 20
-53.529882825
 10
324.734765054
 20
-51.1272431134
 10
325.283244268
 20
-48.7457598059
 10
325.7123465196
 20
-46.3958465229
 10
326.0201954539
 20
-44.0877788374
 10
326.2054449259
 20
-41.8316493422
 10
326.2672848867
 20
-39.6373235174
  0
LWPOLYLINE
  5
FE
330
1F
100
AcDbEntity
  8
0
  6
Continuous
 62
     7
370
    25
100
AcDbPolyline
 90
       13
 70
   128
 43
0.0
 10
442.2327970013
 20
-106.5827886868
 10
442.1709570405
 20
-104.459861761
 10
441.9857075685
 20
-102.4176167534
 10
441.6778586342
 20
-100.4649838818
 10
441.2487563825
 20
-98.6105015131
 10
440.7002771686
 20
-96.8622788266
 10
440.0348193523
 20
-95.2279603555
 10
439.2552928115
 20
-93.7146925585
 10
438.3651062173
 20
-92.3290925708
 10
437.3681521293
 20
-91.0772192684
 10
436.2687899739
 20
-89.9645467749
 10
435.0718269822
 20
-88.9959405239
 10
433.9469004065
 20
-88.268996428
  0
LWPOLYLINE
  5
FF
330
1F
100
AcDbEntity
  8
0
  6
Continuous
 62
     7
370
    25
100
AcDbPolyline
 90
       37
 70
   128
 43
0.0
 10
393.9501511011
 20
-157.5529054185
 10
394.792110071
 20
-157.9996582783
 10
396.2092995107
 20
-158.5909916777
 10
397.7040580733
 20
-159.0263053372
 10
399.2698495598
 20
-159.3036957409
 10
400.8998271625
 20
-159.4219499312
 10
402.586863404
 20
-159.3805508127
 10
404.3235813042
 20
-159.179679413
 10
406.1023866375
 20
-158.8202140918
 10
407.9155011409
 20
-158.3037266994
 10
409.7549965258
 20
-157.6324757038
 10
411.612829147
 20
-156.8093963148
 10
413.4808751752
 20
-155.8380876492
 10
415.3509661204
 20
-154.7227969925
 10
417.2149245508
 20
-153.4684012271
 10
419.0645998502
 20
-152.0803855065
 10
420.8919038594
 20
-150.5648192702
 10
422.6888462428
 20
-148.9283297039
 10
424.4475694285
 20
-147.1780727599
 10
426.1603829676
 20
-145.3217018667
 10
427.8197971623
 20
-143.3673344616
 10
429.4185558164
 20
-141.3235164963
 10
430.9496679653
 20
-139.1991850665
 10
432.406438445
 20
-137.0036293332
 10
433.7824971689
 20
-134.7464499029
 10
435.0718269822
 20
-132.4375168469
 10
436.2687899739
 20
-130.0869265421
 10
437.3681521293
 20
-127.7049575217
 10
438.3651062173
 20
-125.3020255303
 10
439.2552928115
 20
-122.888637978
 10
440.0348193523
 20
-120.4753479945
 10
440.7002771686
 20
-118.0727082829
 10
441.2487563825
 20
-115.6912249753
 10
441.6778586342
 20
-113.3413116924
 10
441.9857075685
 20
-111.0332440069
 10
442.1709570405
 20
-108.7771145116
 10
442.2327970013
 20
-106.5827886868
  0
LWPOLYLINE
  5
100
330
1F
100
AcDbEntity
  8
0
  6
Continuous
 62
     7
370
    25
100
AcDbPolyline
 90
       85
 70
   128
 43
0.0
 10
320.2568772466
 20
-43.1070579926
 10
320.1945950064
 20
-41.2208773689
 10
320.0080965933
 20
-39.4171545763
 10
319.6984249822
 20
-37.7059767643
 10
319.2673119822
 20
-36.0969135333
 10
318.7171685522
 20
-34.5989634175
 10
318.0510713174
 20
-33.2205035618
 10
317.2727453636
 20
-31.9692428727
 10
316.3865434054
 20
-30.8521789075
 10
315.3974214436
 20
-29.8755587412
 10
314.3109110495
 20
-29.0448440297
 10
313.1330884298
 20
-28.3646804668
 10
311.8705404464
 20
-27.838871803
 10
310.5303277798
 20
-27.4703585736
 10
309.1199454429
 20
-27.2612016541
 10
307.6472808658
 20
-27.2125707349
 10
306.1205697861
 20
-27.3247377796
 10
304.5483501916
 20
-27.5970755048
 10
302.9394145719
 20
-28.0280608875
 10
301.3027607477
 20
-28.6152836824
 10
299.6475415511
 20
-29.3554599016
 10
297.9830136392
 20
-30.2444501794
 10
296.3184857273
 20
-31.2772829216
 10
294.6632665307
 20
-32.4481821084
 10
293.0266127065
 20
-33.7505995967
 10
291.4176770868
 20
-35.1772517397
 10
289.8454574923
 20
-36.7201601197
 10
288.3187464126
 20
-38.3706961673
 10
286.8460818355
 20
-40.1196294153
 10
285.4356994986
 20
-41.9571791197
 10
284.095486832
 20
-43.8730689571
 10
282.8329388486
 20
-45.8565844944
 10
281.6551162289
 20
-47.896633108
 10
280.5686058348
 20
-49.9818060187
 10
279.579483873
 20
-52.1004420936
 10
278.6932819148
 20
-54.2406930605
 10
277.914955961
 20
-56.3905897678
 10
277.2488587262
 20
-58.538109121
 10
276.6987152962
 20
-60.6712413208
 10
276.2676022962
 20
-62.7780570266
 10
275.9579306851
 20
-64.8467740705
 10
275.771432272
 20
-66.8658233474
 10
275.7091500318
 20
-68.823913515
 10
275.771432272
 20
-70.7100941387
 10
275.9579306851
 20
-72.5138169313
 10
276.2676022962
 20
-74.2249947433
 10
276.6987152962
 20
-75.8340579743
 10
277.2488587262
 20
-77.3320080901
 10
277.914955961
 20
-78.7104679458
 10
278.6932819148
 20
-79.9617286349
 10
279.579483873
 20
-81.0787926001
 10
280.5686058348
 20
-82.0554127664
 10
281.6551162289
 20
-82.8861274779
 10
282.8329388486
 20
-83.5662910408
 10
284.095486832
 20
-84.0920997046
 10
285.4356994986
 20
-84.460612934
 10
286.8460818355
 20
-84.6697698535
 10
288.3187464126
 20
-84.7184007728
 10
289.8454574923
 20
-84.606233728
 10
291.4176770868
 20
-84.3338960028
 10
293.0266127065
 20
-83.9029106201
 10
294.6632665307
 20
-83.3156878252
 10
296.3184857273
 20
-82.575511606
 10
297.9830136392
 20
-81.6865213282
 10
299.6475415511
 20
-80.6536885861
 10
301.3027607477
 20
-79.4827893992
 10
302.9394145719
 20
-78.1803719109
 10
304.5483501916
 20
-76.753719768
 10
306.1205697861
 20
-75.2108113879
 10
307.6472808658
 20
-73.5602753403
 10
309.1199454429
 20
-71.8113420923
 10
310.5303277798
 20
-69.9737923879
 10
311.8705404464
 20
-68.0579025505
 10
313.1330884298
 20
-66.0743870133
 10
314.3109110495
 20
-64.0343383996
 10
315.3974214436
 20
-61.9491654889
 10
316.3865434054
 20
-59.830529414
 10
317.2727453636
 20
-57.6902784471
 10
318.0510713174
 20
-55.5403817398
 10
318.7171685522
 20
-53.3928623866
 10
319.2673119822
 20
-51.2597301868
 10
319.6984249822
 20
-49.152914481
 10
320.0080965933
 20
-47.0841974371
 10
320.1945950064
 20
-45.0651481602
 10
320.2568772466
 20
-43.1070579926
  0
ARC
  5
101
330
1F
100
AcDbEntity
  8
0
  6
Continuous
 62
     7
370
    25
100
AcDbCircle
 10
300.099282507
 20
4.5494072317
 30
0.0
 40
3.473993077931855
100
AcDbArc
 50
113.9307254212
 51
174.7491336212
  0
LWPOLYLINE
  5
102
330
1F
100
AcDbEntity
  8
0
  6
Continuous
 62
     7
370
    25
100
AcDbPolyline
 90
       16
 70
   128
 43
0.0
 10
310.6398678887
 20
4.8673355319
 10
310.6044117341
 20
5.2735463697
 10
310.4013486727
 20
5.9132269127
 10
310.0231668106
 20
6.5258194182
 10
309.4796608595
 20
7.0954580623
 10
308.7849073379
 20
7.6073895032
 10
307.9568999971
 20
8.0483549855
 10
307.0170837923
 20
8.4069337349
 10
305.9897994697
 20
8.6738387501
 10
304.9016531534
 20
8.8421573314
 10
303.7808272615
 20
8.907530116
 10
302.656350596
 20
8.8682639831
 10
301.5573465117
 20
8.7253759049
 10
300.5122786372
 20
8.4825666075
 10
299.5482136814
 20
8.1461247243
 10
298.6901204204
 20
7.7247639233
  0
ENDSEC
  0
SECTION
  2
OBJECTS
  0
DICTIONARY
  5
C
330
0
100
AcDbDictionary
281
     1
  3
ACAD_GROUP
350
D
  3
ACAD_LAYOUT
350
1A
  3
ACAD_MLINESTYLE
350
17
  3
ACAD_PLOTSETTINGS
350
19
  3
ACAD_PLOTSTYLENAME
350
E
  3
ACAD_SCALELIST
350
47
  3
DWGPROPS
350
103
  0
DICTIONARY
  5
D
102
{ACAD_REACTORS
330
C
102
}
330
C
100
AcDbDictionary
281
     1
  0
DICTIONARY
  5
1A
102
{ACAD_REACTORS
330
C
102
}
330
C
100
AcDbDictionary
281
     1
  3
Layout1
350
1E
  3
Layout2
350
26
  3
Model
350
22
  0
DICTIONARY
  5
17
102
{ACAD_REACTORS
330
C
102
}
330
C
100
AcDbDictionary
281
     1
  3
Standard
350
18
  0
DICTIONARY
  5
19
102
{ACAD_REACTORS
330
C
102
}
330
C
100
AcDbDictionary
281
     1
  0
ACDBDICTIONARYWDFLT
  5
E
102
{ACAD_REACTORS
330
C
102
}
330
C
100
AcDbDictionary
281
     1
  3
Normal
350
F
100
AcDbDictionaryWithDefault
340
F
  0
DICTIONARY
  5
47
102
{ACAD_REACTORS
330
C
102
}
330
C
100
AcDbDictionary
281
     1
  3
A0
350
48
  3
A1
350
49
  3
A2
350
4A
  3
A3
350
4B
  3
A4
350
4C
  3
A5
350
4D
  3
A6
350
4E
  3
A7
350
4F
  3
A8
350
50
  3
A9
350
51
  3
B0
350
52
  3
B1
350
53
  3
B2
350
54
  3
B3
350
55
  3
B4
350
56
  3
B5
350
57
  3
B6
350
58
  3
B7
350
59
  3
B8
350
5A
  3
B9
350
5B
  3
C0
350
5C
  3
C1
350
5D
  3
C2
350
5E
  3
C3
350
5F
  3
C4
350
60
  3
C5
350
61
  3
C6
350
62
  3
C7
350
63
  3
C8
350
64
  3
C9
350
65
  3
D0
350
66
  3
D1
350
67
  3
D2
350
68
  0
XRECORD
  5
103
102
{ACAD_REACTORS
330
C
102
}
330
C
100
AcDbXrecord
280
     1
  1
DWGPROPS COOKIE
  2

  3

  4

  6

  7

  8
b.kav
  9

300
=
301
=
302
=
303
=
304
=
305
=
306
=
307
=
308
=
309
=
 40
0.0
 41
2459741.482886134
 42
2459741.482886308
  1

 90
        0
  0
LAYOUT
  5
1E
102
{ACAD_REACTORS
330
1A
102
}
330
1A
100
AcDbPlotSettings
  1

  2
none_device
  4

  6

 40
0.0
 41
0.0
 42
0.0
 43
0.0
 44
0.0
 45
0.0
 46
0.0
 47
0.0
 48
0.0
 49
0.0
140
0.0
141
0.0
142
1.0
143
1.0
 70
   688
 72
     1
 73
     0
 74
     5
  7

 75
    16
147
1.0
148
0.0
149
0.0
100
AcDbLayout
  1
Layout1
 70
     1
 71
     1
 10
0.0
 20
0.0
 11
420.0
 21
297.0
 12
0.0
 22
0.0
 32
0.0
 14
1.0000000000E+20
 24
1.0000000000E+20
 34
1.0000000000E+20
 15
-1.0000000000E+20
 25
-1.0000000000E+20
 35
-1.0000000000E+20
146
0.0
 13
0.0
 23
0.0
 33
0.0
 16
1.0
 26
0.0
 36
0.0
 17
0.0
 27
1.0
 37
0.0
 76
     0
330
1B
  0
LAYOUT
  5
26
102
{ACAD_REACTORS
330
1A
102
}
330
1A
100
AcDbPlotSettings
  1

  2
none_device
  4

  6

 40
0.0
 41
0.0
 42
0.0
 43
0.0
 44
0.0
 45
0.0
 46
0.0
 47
0.0
 48
0.0
 49
0.0
140
0.0
141
0.0
142
1.0
143
1.0
 70
   688
 72
     1
 73
     0
 74
     5
  7

 75
    16
147
1.0
148
0.0
149
0.0
100
AcDbLayout
  1
Layout2
 70
     1
 71
     2
 10
0.0
 20
0.0
 11
0.0
 21
0.0
 12
0.0
 22
0.0
 32
0.0
 14
0.0
 24
0.0
 34
0.0
 15
0.0
 25
0.0
 35
0.0
146
0.0
 13
0.0
 23
0.0
 33
0.0
 16
1.0
 26
0.0
 36
0.0
 17
0.0
 27
1.0
 37
0.0
 76
     0
330
23
  0
LAYOUT
  5
22
102
{ACAD_REACTORS
330
1A
102
}
330
1A
100
AcDbPlotSettings
  1

  2
none_device
  4
Letter_(8.50_x_11.00_Inches)
  6

 40
6.35
 41
6.35
 42
6.35000508
 43
6.35000508
 44
215.9
 45
279.4
 46
0.0
 47
0.0
 48
0.0
 49
0.0
140
0.0
141
0.0
142
1.0
143
1.0
 70
  1712
 72
     1
 73
     0
 74
     0
  7

 75
     0
147
1.0
148
0.0
149
0.0
100
AcDbLayout
  1
Model
 70
     1
 71
     0
 10
0.0
 20
0.0
 11
279.4
 21
215.9
 12
0.0
 22
0.0
 32
0.0
 14
0.0
 24
0.0
 34
0.0
 15
279.4
 25
215.9
 35
0.0
146
0.0
 13
0.0
 23
0.0
 33
0.0
 16
1.0
 26
0.0
 36
0.0
 17
0.0
 27
1.0
 37
0.0
 76
     0
330
1F
331
29
  0
MLINESTYLE
  5
18
102
{ACAD_REACTORS
330
17
102
}
330
17
100
AcDbMlineStyle
  2
Standard
 70
     0
  3

 62
   256
 51
90.0
 52
90.0
 71
     2
 49
0.5
 62
   256
  6
BYLAYER
 49
-0.5
 62
   256
  6
BYLAYER
  0
ACDBPLACEHOLDER
  5
F
102
{ACAD_REACTORS
330
E
102
}
330
E
  0
SCALE
  5
48
102
{ACAD_REACTORS
330
47
102
}
330
47
100
AcDbScale
 70
     0
300
1:1
140
1.0
141
1.0
290
     1
  0
SCALE
  5
49
102
{ACAD_REACTORS
330
47
102
}
330
47
100
AcDbScale
 70
     0
300
1:2
140
1.0
141
2.0
290
     0
  0
SCALE
  5
4A
102
{ACAD_REACTORS
330
47
102
}
330
47
100
AcDbScale
 70
     0
300
1:4
140
1.0
141
4.0
290
     0
  0
SCALE
  5
4B
102
{ACAD_REACTORS
330
47
102
}
330
47
100
AcDbScale
 70
     0
300
1:5
140
1.0
141
5.0
290
     0
  0
SCALE
  5
4C
102
{ACAD_REACTORS
330
47
102
}
330
47
100
AcDbScale
 70
     0
300
1:8
140
1.0
141
8.0
290
     0
  0
SCALE
  5
4D
102
{ACAD_REACTORS
330
47
102
}
330
47
100
AcDbScale
 70
     0
300
1:10
140
1.0
141
10.0
290
     0
  0
SCALE
  5
4E
102
{ACAD_REACTORS
330
47
102
}
330
47
100
AcDbScale
 70
     0
300
1:16
140
1.0
141
16.0
290
     0
  0
SCALE
  5
4F
102
{ACAD_REACTORS
330
47
102
}
330
47
100
AcDbScale
 70
     0
300
1:20
140
1.0
141
20.0
290
     0
  0
SCALE
  5
50
102
{ACAD_REACTORS
330
47
102
}
330
47
100
AcDbScale
 70
     0
300
1:30
140
1.0
141
30.0
290
     0
  0
SCALE
  5
51
102
{ACAD_REACTORS
330
47
102
}
330
47
100
AcDbScale
 70
     0
300
1:40
140
1.0
141
40.0
290
     0
  0
SCALE
  5
52
102
{ACAD_REACTORS
330
47
102
}
330
47
100
AcDbScale
 70
     0
300
1:50
140
1.0
141
50.0
290
     0
  0
SCALE
  5
53
102
{ACAD_REACTORS
330
47
102
}
330
47
100
AcDbScale
 70
     0
300
1:100
140
1.0
141
100.0
290
     0
  0
SCALE
  5
54
102
{ACAD_REACTORS
330
47
102
}
330
47
100
AcDbScale
 70
     0
300
2:1
140
2.0
141
1.0
290
     0
  0
SCALE
  5
55
102
{ACAD_REACTORS
330
47
102
}
330
47
100
AcDbScale
 70
     0
300
4:1
140
4.0
141
1.0
290
     0
  0
SCALE
  5
56
102
{ACAD_REACTORS
330
47
102
}
330
47
100
AcDbScale
 70
     0
300
8:1
140
8.0
141
1.0
290
     0
  0
SCALE
  5
57
102
{ACAD_REACTORS
330
47
102
}
330
47
100
AcDbScale
 70
     0
300
10:1
140
10.0
141
1.0
290
     0
  0
SCALE
  5
58
102
{ACAD_REACTORS
330
47
102
}
330
47
100
AcDbScale
 70
     0
300
100:1
140
100.0
141
1.0
290
     0
  0
SCALE
  5
59
102
{ACAD_REACTORS
330
47
102
}
330
47
100
AcDbScale
 70
     0
300
1/128" = 1'-0"
140
0.0078125
141
12.0
290
     0
  0
SCALE
  5
5A
102
{ACAD_REACTORS
330
47
102
}
330
47
100
AcDbScale
 70
     0
300
1/64" = 1'-0"
140
0.015625
141
12.0
290
     0
  0
SCALE
  5
5B
102
{ACAD_REACTORS
330
47
102
}
330
47
100
AcDbScale
 70
     0
300
1/32" = 1'-0"
140
0.03125
141
12.0
290
     0
  0
SCALE
  5
5C
102
{ACAD_REACTORS
330
47
102
}
330
47
100
AcDbScale
 70
     0
300
1/16" = 1'-0"
140
0.0625
141
12.0
290
     0
  0
SCALE
  5
5D
102
{ACAD_REACTORS
330
47
102
}
330
47
100
AcDbScale
 70
     0
300
3/32" = 1'-0"
140
0.09375
141
12.0
290
     0
  0
SCALE
  5
5E
102
{ACAD_REACTORS
330
47
102
}
330
47
100
AcDbScale
 70
     0
300
1/8" = 1'-0"
140
0.125
141
12.0
290
     0
  0
SCALE
  5
5F
102
{ACAD_REACTORS
330
47
102
}
330
47
100
AcDbScale
 70
     0
300
3/16" = 1'-0"
140
0.1875
141
12.0
290
     0
  0
SCALE
  5
60
102
{ACAD_REACTORS
330
47
102
}
330
47
100
AcDbScale
 70
     0
300
1/4" = 1'-0"
140
0.25
141
12.0
290
     0
  0
SCALE
  5
61
102
{ACAD_REACTORS
330
47
102
}
330
47
100
AcDbScale
 70
     0
300
3/8" = 1'-0"
140
0.375
141
12.0
290
     0
  0
SCALE
  5
62
102
{ACAD_REACTORS
330
47
102
}
330
47
100
AcDbScale
 70
     0
300
1/2" = 1'-0"
140
0.5
141
12.0
290
     0
  0
SCALE
  5
63
102
{ACAD_REACTORS
330
47
102
}
330
47
100
AcDbScale
 70
     0
300
3/4" = 1'-0"
140
0.75
141
12.0
290
     0
  0
SCALE
  5
64
102
{ACAD_REACTORS
330
47
102
}
330
47
100
AcDbScale
 70
     0
300
1" = 1'-0"
140
1.0
141
12.0
290
     0
  0
SCALE
  5
65
102
{ACAD_REACTORS
330
47
102
}
330
47
100
AcDbScale
 70
     0
300
1-1/2" = 1'-0"
140
1.5
141
12.0
290
     0
  0
SCALE
  5
66
102
{ACAD_REACTORS
330
47
102
}
330
47
100
AcDbScale
 70
     0
300
3" = 1'-0"
140
3.0
141
12.0
290
     0
  0
SCALE
  5
67
102
{ACAD_REACTORS
330
47
102
}
330
47
100
AcDbScale
 70
     0
300
6" = 1'-0"
140
6.0
141
12.0
290
     0
  0
SCALE
  5
68
102
{ACAD_REACTORS
330
47
102
}
330
47
100
AcDbScale
 70
     0
300
1'-0" = 1'-0"
140
12.0
141
12.0
290
     0
  0
ENDSEC
  0
EOF
